Acordes y tablaturas para guitarra

Acordes y Tablaturas
Usuario: Password:

Buscar:
Acordes y Tablaturas >> Letra M >> Acordes de Mago de Oz >> molinos de viento
Acordes de molinos de viento, Mago de Oz

Molinos de viento

Mago de Oz






ACORDES:

     E5     D5     C5     B5     A5
e|---X------X------X------X------X------------------------------------
B|---X------X------X------X------X------------------------------------
G|---9------7------5------4------2------------------------------------
D|---9------7------5------4------2------------------------------------
A|---7------5------3------2------0------------------------------------
E|---X------X------X------X------X------------------------------------


Intro.
      PM.........                      
D5 E5 E5 E5 E5 E5 DOS VECES,
            PM.....................    .........
LUEGO D5 C5 C5 C5 C5 C5 C5  B5 B5  C5  C5 C5 C5  D5 D5 E5

VERSO
                   D5 E5
SI ACASO TU NO VEZ
                     D5 C5
MAS ALLA DE TU NARIZ   ......     ........
                       B5 B5  C5  C5 C5 C5  D5 D5 E5
NOTAS A UNA FLOR REIR
                    D5 E5
SI NO PUEDES HABLAR
                         D5 C5
SIN TENER QUE OIR TU VOZ  .....     .........
                          B5 B5  C5  C5 C5 C5  D5 D5 E5
UTILIZANDO EL CORAZON
  E5           D5 E5
AMIGO SAL Y ESCUCHAME
                      D5 C5
NO TODO TIENE QUE UN PORQUE .....    ........
                            B5 B5 C5 C5 C5 C5  D5 D5        
UN CAMINO LO HACEN LOS PIES
E5                D5 E5
HAY UN DON POR DESCUBRIR
                  D5 C5
Y UNA VIDA QUE ARRANCAR .....    ....... 
                        B5 B5 C5 C5 C5 C5  D5
DE BRAZOS DEL GUION FINAL

A VECES SIENTO AL DESPERTAR

e----------------------------------------------
B-8---8---8----7h8h10--7----5h7h8-5-7-8--------    2 VECES
G---9---9---9------------7----------------------

QUE EL SUEÑO ES LA REALIDAD

e7---7---7---7h8h10--7-----5h7h9--5-7-9--------
B--8---8---8-----------8----------------------


CORO
E5          E5        
BEBE CANTA SUEÑA
D5                          C5 C5  C5
SIENTE QUE EL VIENTO HA SIDO HECHO PARA TI
E5            E5
VIVE ESCUCHA Y HABLA
D5             C5 C5 C5
USANDO PARA ELLO EL CORAZON
G5              G5        D5              C5
SIENTE QUE LA LLUVIA BESA TU CARA CUANDO HACES EL AMOR
G5           G5              D5
GRITA CON EL ALMA, GRITA TAN ALTO...

QUE DE TU VIDA TU SEAS AMIGO EL UNICO ACTOR.


Que te parecio? Calificalo con estrellas!!

Rating: 6.9/10 (709 votos)

Este fichero es trabajo propio de su transcriptor y representa su interpretación personal de la canción. El material contenido en esta página es para exclusivo uso privado, por lo que se prohibe su reproducción o retransmisión, así como su uso para fines comerciales.


Deja tus comentarios:

Letras de Mago de Oz
Letras de canciones | Musica Independiente