Enviado por: gonzalos
Agrandar Letra
Reducir Letra
Imprimir

Acordes:
½ tono
| +0 |
½ tono
||
Volver





Intoxicados, Intoxicado

 Viejas Locas 
Intoxicado 
AUTOR: Cristian Alvarez
ALBUM: Sigue Pegando: Grandes Exitos [97]
 
    C5  A5
e--------------------------
b-------------------------8
g----5--2--2-2-2-2----2/9-9
d----5--2--2-2-2-2---------
a----3--0--0-0-0-0---------
E--------------------------

    C5  A5
e----------------------------------
b-------------------------8-8------
g----5--2--2-2-2-2----2/9-9-9--7--5
d----5--2--2-2-2-2-----------------
a----3--0--0-0-0-0-----------------
E----------------------------------


C5  A5
      a nadie importa si yo cuido mi flor
C5  A5
     yo la protejo contra el viento
C5  A5 
     la riego n poco y la llevo al Sol 
C5  A5[silencio] 
     y con su fruto
                  
             D5                   A5
intoxicado estoy y por las calles voy
             D5                   A5
intoxicado estoy y por las calles voy

Repite Intro

un mezcalito que te va a gustar
con su veneno ella juega
una flor muerta como las demas
y con su fruto

             D5                   A5
intoxicado estoy y por las calles voy
             D5                   A5
intoxicado estoy y por las calles voy

Repite intro

 
 
Aviso: Este fichero es trabajo propio de su transcriptor y representa su interpretación personal de la canción. El material contenido en esta página es para exclusivo uso privado, por lo que se prohibe su reproducción o retransmisión, así como su uso para fines comerciales.
comentario del colaborador: gonzalo: vi q no estava este tema y lo puse:::: chausssssssss

Califica esta canción


Comentarios en Facebook