Enviado por: pablito
Agrandar Letra
Reducir Letra
Imprimir


Otras Versiones de Aun Estas En Mis Sueños:









Rata Blanca, Aun Estas En Mis Sueños

Buen les dejo la tablatura grabada de oido..espero ke les guste mucho..debe haber algunas errores



Riff 1:
B|-12-11-----12--14--12--11---------|
G|-------12------------------12--14-|

Riff 2:
G|-8-8----------------|
D|-----11-9-9p11bv----|

Riff 3:
e|---------------------------|
B|---------------------------|
G|--------------8-6---6-8-6b-|
D|-9-8-6--9-8-6-----9--------|
A|---------------------------|
E|---------------------------|

Riff 4:
e|-----------------------------|
B|-----------------------------|
G|--------------11-9-8---------|
D|-9-8-6--9-8-6--------11-9-8b-|
A|-----------------------------|
E|-----------------------------|

Intro:
e|-------------------------------------------------|
B|-------------------------------------------------|
G|----4-4-------6-6--6-6-6s4----4-4----------------|
D|-6--4-4--4-4--6-6--6-6-6s4-6--4-4--4-4--2-2--2-2-|
A|-6--2-2--4-4--4-4--4-4-4s2-6--2-2--4-4--2-2--2-2-|
E|-4-------2-2---------------4-------2-2--0-0--0-0-|

 |------------------------------------------|
 |------------------------------------------|
 |----4-4-------6-6--6-6-6s4----4-4---------|
 |-6--4-4--4-4--6-6--6-6-6s4-6--4-4--4-4--2-|
 |-6--2-2--4-4--4-4--4-4-4s2-6--2-2--4-4--2-|
 |-4-------2-2---------------4-------2-2--0-|

Verso 1:
 E                      B
Hoy desperté con un montón de marcas en mi piel
C#m        G#m                F#
Alguien por la noche me las dejo
 E                          B
Quiero saber si esta fue la magia de tus labios
C#m         G#m    C#m          G#m
Hay perfume de mujer brotando aquí
      E           D#m       C#m B         F#     E        D#
El conjuro de un cuento de amor ya me atrapo lo puedo sentir

Coro:
G#m        E      B                   F#
Y por las noches puedo sentir su calor
G#m        E        B                D#
Su dulce magia me hace perder la razón
G#m        E     B                   F#
Y de mis sueños creo que un día escapo
G#m        E     B                D#
Para esconderse dentro de mi corazón

(Rep. Intro)

Verso 2:
 E                  B
Como escapar nada real me importa conocer
C#m        G#m          F# (Riff 1)
Solo esperare hasta dormir

E                           B                (Riff 2)
Estoy aquí frente al gran espejo para convencer

C#m            G#m     C#m      G#m
A los duendes que dirán como llegar
E                D#m   C#m
A aprender el hechizo real
     B        F#         E        D#
que junte los sueños con la realidad

Coro:
G#m        E      B                   F#
Y por las noches puedo sentir su calor
G#m        E        B                D#
Su dulce magia me hace perder la razón
G#m        E     B                   F#
Y de mis sueños creo que un día escapo
G#m        E     B                D#
Para esconderse dentro de mi corazón
     D#5
Ooohh.....

Solo:
e|---------------------------------------------------------------|
B|-7-9-7---------------------------------------------------------|
G|-------9-6b(8)r-6---6-8-8p6---6--1s4vv--4-3h4p3p1--4-3h4p3p1s6-|
D|------------------9---------9----------------------------------|
A|---------------------------------------------------------------|
E|---------------------------------------------------------------|

 |<---------------------- Rápido -------------------------->|
e|----------------------------------------------------------|
B|-7p4---7p4h7p4---7p4h7p4----------------------------------|
G|-----6---------6---------64646464-------------------------|
D|----------------------------------646464------------------|
A|-----------------------------------------747474-----------|
E|-------------------------------------------------7--4v----|

 |<---- En esta parte meterle harto feeling -------
e|----14-16-14p16b-12h14p12h11p12b-11h12p14p12p14b-|
B|-16----------------------------------------------|
G|-------------------------------------------------|
D|-------------------------------------------------|
A|-------------------------------------------------|
E|-------------------------------------------------|

  ------------------------------->|
 |-11h12p14p12p14b-12p11----------|
 |----------------------14p12p14b-|
 |--------------------------------|
 |--------------------------------|
 |--------------------------------|
 |--------------------------------|

 |<------------ Súper Rápido ------------------->|
e|-----------------------------------------------|
B|-1214121412------------------------------------|
G|------------13111311---------------------------|
D|---------------------14111411-----------11b----|
A|-----------------------------1411141114-11b----|
E|-----------------------------------------9b----|

e|------------------------------------------------------------------|
B|----------------------------12-14-14s16-14-12-11-9-7-5-s8-5-4-2---|
G|-13-11h13p11----13h13p11------------------------------------------|
D|-------------14----------14-------------------------------------6-|
A|------------------------------------------------------------------|
E|------------------------------------------------------------------|

Coro:
G#m        E      B                   F#
Y por las noches puedo sentir su calor
G#m       E        B                D#
Su dulce magia me hace perder la razón
G#m        E      B                  F#
Y de mis sueños creo que un día escapo
G#m        E     B                D#
Para esconderse dentro de mi corazón

Riff 3                   Riff 4
      Aún estas en mis sueñoooooooos      Oooohh nooo

Riff 3                  Riff 4
      dentro de mi corazóooon       aahhh ohhhh...
Aviso: Este fichero es trabajo propio de su transcriptor y representa su interpretación personal de la canción. El material contenido en esta página es para exclusivo uso privado, por lo que se prohibe su reproducción o retransmisión, así como su uso para fines comerciales.
comentario del colaborador: bueo no tengo ke decir nada mas espero ke les guste..alta tablatura la mia eh

Califica esta canción


Comentarios en Facebook