Acordes y tablaturas para guitarra

Acordes y Tablaturas
Usuario: Password:

Buscar:
Acordes y Tablaturas >> Letra A >> Acordes de AC/DC >> Back in Black
Tablatura de Back in Black, AC/DC

Back in Black

AC/DC






Aca les traigo la verdadera back in black ya ke casi todos la ponen mal
Soy Fabricio Guido y me gustaria ke les guste:

INTRO:

NOTA: esta es la verdadera y la original, se usa un tapping.
Para los ke no saben ke es tapping: es tocar la cuerda con la mano izkierda (si sos diestro obvio)

e|---3-3-3-------3t0----------------3-3-3-----------------------
B|---2-2-2-2-2-2----3t0-------------2-2-2-2-2-2-----------------
G|1--3-3-3-2-2-2--------3t0------1--3-3-3-2-2-2-----------------
D|2--0-0-0-2-2-2------------2t0--2--0-0-0-2-2-2-----------------
A|2--------0-0-0-----------------2--------0-0-0-2---2---2-0-2-1-
E|0------------------------------0----------------3---4---------

LOS VERSOS:

Los versos son la intro

CORO:

e|----------    --------------------/-----------   ------------
B|----------    -2--3-3-2--2--3-3-2-/-----------   33333-3-3v--
G|2---4-2-4-    -2--0-2-2--2--0-2-2-/-2---4-2-4-   00000-2-2v--
D|2-2-4-2-4-    -2--0-0-2--2--0-0-2-/-2-2-4-2-4-   00000-0-0---
A|0-2-2-0-2-    -0--2---0--0--2---0-/-0-2-2-0-2-   22222-------
E|--0------- x2 ----3---------3-----/---0-------x2 33333-------

luego del coro vuelve con la intro (osea los versos)
y luego de eso... vuelve con el coro

y luego de eso:

COMIENZO PARA EL SOLO:

e|---------------------------------------
B|-------------------------------2-3-2---
G|-------------------------------0-2-2---
D|7---9-9-9--7-7-7-7---9v-9v-----0-0-2---
A|5---7-7-7--5-5-4-4---7v-7v-----2---0---
E|-------------------------------3-------

EL SOLO*:
 
*Lo saque de fretplay.com y lo modifique un poco
e|--------------------------------------------------------------
B|--------------------------------------------------------------
G|----------------------0-2-3p2-0-2-----------------------7-7-7-
D|--------------------2-------------2---------------------------
A|--7v----5v---4v---2---------------------7v----5v----4v--------
E|0-----0----0--------------------------0-----0-----0-----------

e|--------------------/-----------------------------------
B|------------8-------/--8-10-11-10-8-10-8----------------
G|7v-7b-9v--9---7b-9v-/9-------------------9-7-9-12-9-12--
D|--------------------/-----------------------------------
A|--------------------/-----------------------------------
E|--------------------/-----------------------------------

e|-------10--------10------------------/-----------------------
B|10b-12----10b-12----10b-12-10----10v-/-------------------10b-
G|------------------------------12-----/12-----12----14-12-----
D|-------------------------------------/12-14v----14-----------
A|-------------------------------------/-----------------------
E|-------------------------------------/-----------------------

e|---10----12v-10b-12-10b-12-10b-12--12-----------------------/-
B|12----12------------------------------15-12----12----10b-12-/-
G|--------------------------------------------14----12--------/-
D|------------------------------------------------------------/-
A|------------------------------------------------------------/-
E|------------------------------------------------------------/-

e|----------15----------------------------------------------/---
B|15-----------------------------------------------------14-/---
G|---14b-16----16p14--12-14----12b-14v--12-13-14---12----14-/---
D|--------------------------14------------------------14----/14-
A|----------------------------------------------------------/---
E|----------------------------------------------------------/---

e|------------------------------------------12------------------
B|-----------15---------------------15b-17v----15-12----12------
G|-12-14b-16----14b-16-14p12-14----------------------14----12---
D|------------------------------14v---------------------------14
A|--------------------------------------------------------------
E|--------------------------------------------------------------

RIFF: el riff lo acabo de sacar viene despues de el solo:

e|-3-3-3-3--3-3-3-3--3-3-3-3---
B|-5-5-5-5--3-3-2-3--2-2-0-2---
G|-----------------------------
D|-----------------------------
A|-----------------------------
E|-----------------------------

lo repite varias veces durante el outtro

y hasta aca es todo el tema ke me se


Que te parecio? Calificalo con estrellas!!

Rating: 7.8/10 (795 votos)

Este fichero es trabajo propio de su transcriptor y representa su interpretación personal de la canción. El material contenido en esta página es para exclusivo uso privado, por lo que se prohibe su reproducción o retransmisión, así como su uso para fines comerciales.


Comentario de angus/young
el solo es de fretplay.com
Deja tus comentarios:

Letras de AC/DC
Letras de canciones | Musica Independiente