Acordes y tablaturas para guitarra

Acordes y Tablaturas
Usuario: Password:

Buscar:
Acordes y Tablaturas >> Letra R >> Acordes de Red Hot Chili Peppers >> Can´t Stop
Acordes de Can´t Stop, Red Hot Chili Peppers

Can´t Stop

Red Hot Chili Peppers






bm.c.d.g.
 Intro:

E|--------------------------------|
B|--------------------------------|
G|--------------------------------|
D|--------------------------------|
A|---5^7---5^7---5^7---5^7---5^7--|  8X 
E|--------------------------------|
 
Verso:

E|-------------------------------------------------
B|-------------------------------------------------
G|------7--9-----7--9------7--9-----7--9------7--9-
D|-------------------------------------------------
A|--777------777------7775------555------555-------
E|------------------------------------------7------

E|------------------------------------|
B|------------------------------------|
G|----7--9------7--9-----7--9---------|
D|------------------------------------|
A|----------------------------------7-|
E|777------7778------888-------888----|
  


Letra:

Cant stop addicted to the shin dig
Cop top he says I'm gonna win big
Choose not a life of imitation
Distant cousin to the reservation
Defunkt the pistol that you pay for
This punk the feeling that you stay for
In time I want to be your best friend
Eastside love is living on the West End
Knock out but boy you better come to
Don't die you know the truth is some do
Go write your message on the pavement
Burning so bright I wonder what the wave meant
White heat is screaming in the jungle
Complete the motion if you stumble
Go ask the dust for any answers
Come back strong with 50 belly dancers

      G
The world I love
      D
The trains I hop
      Bm
To be part of
      C
The wave can't stop 
  G             D             Bm-C    
Come and tell me when it's time to    2X


Sweetheart is bleeding in the snowcone
So smart she's leading me to ozone
Music the great communicator             
Use two sticks to make it in the nature
I'll get you into penetration
The gender of a generation
The birth of every other nation
Worth your weight the gold of meditation
This chapter's going to be a close one
Smoke rings I know you're going to blow one
All on a spaceship persevering
Use my hands for everything but steering
Can't stop the spirits when they need you
Mop tops are happy when they feed you
J. butterfly is in the treetop
Birds that blow the meaning into bebop
      G        
The world I love
      D
The tears I drop
     Bm
To be part of
      C
The wave can't stop
  G          D       Bm       C     
Ever wonder if it's all for you  2X

E|--------------------------------------------------
B|--------------------------------------------------
G|---9-----9-----9----9----7----7----7---7---7----7-
D|--------------------------------------------------
A|-7----7x----7x---7----5----5x---5x---5------------
E|-----------------------------------------7---7x---

E|------------------------------|
B|------------------------------|
G|----7---7---9----9----9---9---|
D|------------------------------|
A|------------------------------|
E|-7x---7---8---8x---8x---8-----|

Wait for me when I'm passing out, win or lose
Just like you
Far more shockin' than anything I ever knew
How about you
Ten more reasons why I need somebody new
Just like you
Far more shockin' than anything I ever knew
Right on Q

E|12---12s10---10s7---7s3---|
B|--------------------------|
G|--------------------------|
D|--------------------------|
A|--------------------------|
E|--------------------------|

E|12---14s10---12s7---9s3t5-3-|
B|----------------------------|
G|----------------------------|
D|----------------------------|
A|----------------------------|
E|----------------------------|


Can't stop addicted to the shin dig
Cop top he says I'm gonna win big
Choose not a life of imitation
Distant cousin to the reservation
Defunkt the pistol that you pay for
This punk the feeling that you stay for
In time I want to be your best friend
Eastside love is living on the West End
Knock out but boy you better come to
Don't die you know the truth is some do
Go write your message on the pavement
Burning so bright I wonder what the wave meant
Kick star the golden generator
Sweet talk but don't intimidate her
Can't stop the gods from engineering
Feel no need for any interfering
Your image in the dictionary
This life is more than ordinary
Can I get 2 maybe even 3 of these
Come from space to teach you of the pliedes

[SOMENTE VOCAL]
Can't stop the spirits when they need you
This life is more than just a read thru 

 

Que te parecio? Calificalo con estrellas!!

Rating: 8.1/10 (244 votos)

Este fichero es trabajo propio de su transcriptor y representa su interpretación personal de la canción. El material contenido en esta página es para exclusivo uso privado, por lo que se prohibe su reproducción o retransmisión, así como su uso para fines comerciales.


Deja tus comentarios:

Letras de Red Hot Chili Peppers
Letras de canciones | Musica Independiente