Acordes y tablaturas para guitarra

Acordes y Tablaturas
Usuario: Password:

Buscar:
Acordes y Tablaturas >> Letra P >> Acordes de Pink Floyd >> Wish You Were Here
Tablatura de Wish You Were Here, Pink Floyd

Wish You Were Here

Pink Floyd






-------------------------------------------------------------
"WISH YOU WERE HERE", Pink Floyd
-------------------------------------------------------------
Transcripto por: Sebastián Arashiro
Email & MSN: [email protected]

=============================================================

INTRO:
e---------------------3-------------------3---|
B---------------------3-------------------3---|
G---------------------0-------0-----------0---|
D-------------0--2----0----2-----2--------0---|            
A------0-2------------2-------------------2---|     
E---3-----------------x-------------------3---|      
(TOCAR 2 VECES)
                
e---------------------3--------------------------------3---|

B---------------------3--------------------------------3---|
G---------------------0--------------------------------2---|
D-------------0--2----0------2-----0-------------------2---|
A------0-2------------2------------------2-------0-----0---|
E---3-----------------X--------------------------------0---|
(TOCAR 2 VECES)


SOLO DE GUITARRA 1:
e----------------------------------------------------------|
B----------3---5--------3----------------------------------|
G-----2/4-----------4--------4----2---0--------------------|     
D------------------------------------------0---------0---0-|
A-----------------------------------------------1/2--------|
E----------------------------------------------------------|


e----3/5/3-------------------------------------------------|
B----3/5/3----3/5/3----3----3/5/3--------------------------| 
G-------------2/4/2----0----2/4/2---2p0----2/4-------------|
D------------------------------------------3/5-------------|
A----------------------------------------------------------|
E----------------------------------------------------------|


e---------------------------------------------------------------------|
B----------3--------5----5b---5----3--------------3-----5-------------|
G----2/4-------4----------------------2----4b----------------4b-----2-|
D---------------------------------------------------------------------|
A---------------------------------------------------------------------|
E---------------------------------------------------------------------|


e---------------------------------------------------------------------|
B---------3---------5-----5b-----5------3-----------------------------|  
G----2/4------4-----------------------------2----4b-------------------| 
D---------------------------------------------------------------------|
A---------------------------------------------------------------------|
E---------------------------------------------------------------------|




C                    D           Lam
So, so you think you can tell Heaven from Hell,
G
blue skies from pain.
D                    G                                     Lam
Can you tell a green field from a cold steel rail? A smile from a veil?
G
Do you think you can tell?

C                  D         Lam       G
And did they get you trade your heroes for ghosts?
Am                          G
Hot ashes for trees? Hot air for a cool breeze?
D                   C      C
Cold comfort for change? And did you exchange
Am                       G
a walk on part in the war for a lead role in a cage?

C                    D           Lam
How I wish, how I wish you were here.
We're just two lost souls swimming in a fish bowl,
G
year after year,
C                              Am
running over the same old ground. What have we found?
The same old fears,
G
wish you were here. 

SOLO DE GUITARRA FINAL:
e--------10-10-------10-10---12-10-10------|
B---10/12-------10/12-----------------12---|
G------------------------------------------|
D------------------------------------------|
A------------------------------------------|
E------------------------------------------|

e---------10-10-10-12-10------------------------|
B---10/12--------------------12p10p8------------|
G-----------------------------------7-7---9-7---|
D---------------------------------------9-------|
A-----------------------------------------------|
E-----------------------------------------------|

e----------------10-10-10-----------12------------|
B-----8-10-10/12---------10--12/14----14p12p10----|
G---9---------------------------------------------|
D-------------------------------------------------|
A-------------------------------------------------|
E-------------------------------------------------|
                                                    
e---------10---------------------------12---------------|
B---10/12----12p10p8-10-12-12-8--12/14-----14p12p10--8--|
G-------------------------------------------------------|
D-------------------------------------------------------|
A-------------------------------------------------------|
E-------------------------------------------------------|

How I wish, how I wish you were here.
We're just two lost souls swimming in a fish bowl,
year after year,
running over the same old ground. What have we found?
The same old fears,
Wish you were here...


Que te parecio? Calificalo con estrellas!!

Rating: 8.1/10 (958 votos)

Este fichero es trabajo propio de su transcriptor y representa su interpretación personal de la canción. El material contenido en esta página es para exclusivo uso privado, por lo que se prohibe su reproducción o retransmisión, así como su uso para fines comerciales.


Comentario de thexsevastian
Acordes de Guitarra por Sebastian arashiro.
Deja tus comentarios:

Letras de Pink Floyd
Letras de canciones | Musica Independiente