Acordes y tablaturas para guitarra

Acordes y Tablaturas
Usuario: Password:

Buscar:
Acordes y Tablaturas >> Letra G >> Acordes de Green Day >> Boulevard Of Broken Dreams
Tablatura de Boulevard Of Broken Dreams, Green Day

Boulevard Of Broken Dreams

Green Day






|-------------------------------------------------------------------------------|
| Intro (With A Tremelo Effect)                                                 |
|-------------------------------------------------------------------------------|
|
|  NOTE: This is played over all of the verses; anywhere you hear a tremelo in
|  the background, this is the riff being played:
|
|  |---------------------------|
|  |---------------------------|
|  |----------------8~---------|
|  |--3~-----6~-----8~-----8~--|
|  |--3~-----6~-----6~-----8~--|
|  |--1~-----4~------------6~--|
|

|-------------------------------------------------------------------------------|
| Verse 1                                                                       |
|-------------------------------------------------------------------------------|
|
|  |-----------------------------------|
|  |-----------------------------------|
|  |------------------8-8-8-8----------|  
|  |--3-3-3-3-6-6-6-6-8-8-8-8-8-8-8-8--|  
|  |--3-3-3-3-6-6-6-6-6-6-6-6-8-8-8-8--|
|  |--1-1-1-1-4-4-4-4---------6-6-6-6--|
|
|  |-----------------------------------|
|  |-----------------------------------|
|  |------------------8-8-8-8----------|  
|  |--3-3-3-3-6-6-6-6-8-8-8-8-8-8-8-8--|  
|  |--3-3-3-3-6-6-6-6-6-6-6-6-8-8-8-8--|
|  |--1-1-1-1-4-4-4-4---------6-6-6-6--|
|
|  |-----------------------------------|
|  |-----------------------------------|
|  |------------------8-8-8-8----------|  
|  |--3-3-3-3-6-6-6-6-8-8-8-8-8-8-8-8--|  
|  |--3-3-3-3-6-6-6-6-6-6-6-6-8-8-8-8--|
|  |--1-1-1-1-4-4-4-4---------6-6-6-6--|
|  |                                   |
|  |-----------------------------------|
|  |--8/9-----13/11---8/9-----9/6------|
|  |-----------------------------------|  
|  |-----------------------------------|  
|  |-----------------------------------|
|  |-----------------------------------|
|
|  |-----------------------------------|
|  |-----------------------------------|
|  |------------------8-8-8-8----------|  
|  |--3-3-3-3-6-6-6-6-8-8-8-8-8-8-8-8--|  
|  |--3-3-3-3-6-6-6-6-6-6-6-6-8-8-8-8--|
|  |--1-1-1-1-4-4-4-4---------6-6-6-6--|
|
|  |-----------------------------------|
|  |-----------------------------------|
|  |------------------8-8-8-8----------|  
|  |--3-3-3-3-6-6-6-6-8-8-8-8-8-8-8-8--|  
|  |--3-3-3-3-6-6-6-6-6-6-6-6-8-8-8-8--|
|  |--1-1-1-1-4-4-4-4---------6-6-6-6--|
|
|  |-----------------------------------|
|  |-----------------------------------|
|  |------------------8-8-8-8-------5--|  
|  |--3-3-3-3-6-6-6-6-8-8-8-8-8-8-8-5--|  
|  |--3-3-3-3-6-6-6-6-6-6-6-6-8-8-8-3--|
|  |--1-1-1-1-4-4-4-4---------6-6-6----|
|  |                                   |
|  |-----------------------------------|
|  |--8/9-----13/11---8/9--------------|
|  |-----------------------------------|  
|  |-----------------------------------|  
|  |-----------------------------------|
|  |-----------------------------------|
|

|-------------------------------------------------------------------------------|
| Chorus 1                                                                      |
|-------------------------------------------------------------------------------|
|
|  |-----------------------------------|
|  |-----------------------------------|
|  |--6-6-6-6---------8-8-8-8----------|
|  |--6-6-6-6-6-6-6-6-8-8-8-8-3-3-3-3--|
|  |--4-4-4-4-6-6-6-6-6-6-6-6-3-3-3-3--|
|  |----------4-4-4-4---------1-1-1-1--|
|  
|  |-----------------------------------|
|  |-----------------------------------|
|  |--6-6-6-6---------8-8-8-8----------|
|  |--6-6-6-6-6-6-6-6-8-8-8-8-3-3-3-3--|
|  |--4-4-4-4-6-6-6-6-6-6-6-6-3-3-3-3--|
|  |----------4-4-4-4---------1-1-1-1--|
|
|  |-----------------------------------|
|  |-----------------------------------|
|  |--6-6-6-6---------8-8-8-8----------|
|  |--6-6-6-6-6-6-6-6-8-8-8-8-3-3-3-3--|
|  |--4-4-4-4-6-6-6-6-6-6-6-6-3-3-3-3--|
|  |----------4-4-4-4---------1-1-1-1--|
|
|  |-----------------------------|
|  |-----------------------------|
|  |--6-6-6-6---------5-5-5-5-5--|
|  |--6-6-6-6-6-6-6-6-5-5-5-5-5--|
|  |--4-4-4-4-6-6-6-6-3-3-3-3-3--|
|  |----------4-4-4-4------------|
|

|-------------------------------------------------------------------------------|
| Verse 2                                                                       |
|-------------------------------------------------------------------------------|
|
|  |-----------------------------------|
|  |-----------------------------------|
|  |------------------8-8-8-8----------|  
|  |--3-3-3-3-6-6-6-6-8-8-8-8-8-8-8-8--|  
|  |--3-3-3-3-6-6-6-6-6-6-6-6-8-8-8-8--|
|  |--1-1-1-1-4-4-4-4---------6-6-6-6--|
|
|  |-----------------------------------|
|  |-----------------------------------|
|  |------------------8-8-8-8----------|  
|  |--3-3-3-3-6-6-6-6-8-8-8-8-8-8-8-8--|  
|  |--3-3-3-3-6-6-6-6-6-6-6-6-8-8-8-8--|
|  |--1-1-1-1-4-4-4-4---------6-6-6-6--|
|
|  |-----------------------------------|
|  |-----------------------------------|
|  |------------------8-8-8-8----------|  
|  |--3-3-3-3-6-6-6-6-8-8-8-8-8-8-8-8--|  
|  |--3-3-3-3-6-6-6-6-6-6-6-6-8-8-8-8--|
|  |--1-1-1-1-4-4-4-4---------6-6-6-6--|
|
|  |-----------------------------------|
|  |-----------------------------------|
|  |------------------8-8-8-8----------|  
|  |--3-3-3-3-6-6-6-6-8-8-8-8-8-8-8-8--|  
|  |--3-3-3-3-6-6-6-6-6-6-6-6-8-8-8-8--|
|  |--1-1-1-1-4-4-4-4---------6-6-6-6--|
|
|  |-----------------------------------|
|  |-----------------------------------|
|  |------------------8-8-8-8----------|  
|  |--3-3-3-3-6-6-6-6-8-8-8-8-8-8-8-8--|  
|  |--3-3-3-3-6-6-6-6-6-6-6-6-8-8-8-8--|
|  |--1-1-1-1-4-4-4-4---------6-6-6-6--|
|  |                                   |
|  |-----------------------------------|
|  |--8/9-----13/11---8/9--------------|
|  |-----------------------------------|  
|  |-----------------------------------|  
|  |-----------------------------------|
|  |-----------------------------------|
|
|  |-----------------------------------|
|  |-----------------------------------|
|  |------------------8-8-8-8----------|  
|  |--3-3-3-3-6-6-6-6-8-8-8-8-8-8-8-8--|  
|  |--3-3-3-3-6-6-6-6-6-6-6-6-8-8-8-8--|
|  |--1-1-1-1-4-4-4-4---------6-6-6-6--|
|
|  |-----------------------------------|
|  |-----------------------------------|
|  |------------------8-8-8-8----------|  
|  |--3-3-3-3-6-6-6-6-8-8-8-8-8-8-8-8--|  
|  |--3-3-3-3-6-6-6-6-6-6-6-6-8-8-8-8--|
|  |--1-1-1-1-4-4-4-4---------6-6-6-6--|
|
|  |-----------------------------------|
|  |-----------------------------------|
|  |------------------8-8-8-8----------|  
|  |--3-3-3-3-6-6-6-6-8-8-8-8-8-8-8-8--|  
|  |--3-3-3-3-6-6-6-6-6-6-6-6-8-8-8-8--|
|  |--1-1-1-1-4-4-4-4---------6-6-6-6--|
|  |                                   |
|  |-----------------------------------|
|  |--8/9-----13/11---8/9--------------|
|  |-----------------------------------|  
|  |-----------------------------------|  
|  |-----------------------------------|
|  |-----------------------------------|
|
|  |-----------------------------------|
|  |-----------------------------------|
|  |------------------8-8-8-8-------5--|  
|  |--3-3-3-3-6-6-6-6-8-8-8-8-8-8-8-5--|  
|  |--3-3-3-3-6-6-6-6-6-6-6-6-8-8-8-3--|
|  |--1-1-1-1-4-4-4-4---------6-6-6----|
|  |                                   |
|  |-----------------------------------|
|  |--8/9-----13/11---8/9--------------|
|  |-----------------------------------|  
|  |-----------------------------------|  
|  |-----------------------------------|
|  |-----------------------------------|
|

|-------------------------------------------------------------------------------|
| Chorus 2                                                                      |
|-------------------------------------------------------------------------------|
|
|  |-----------------------------------|
|  |-----------------------------------|
|  |--6-6-6-6---------8-8-8-8----------|
|  |--6-6-6-6-6-6-6-6-8-8-8-8-3-3-3-3--|
|  |--4-4-4-4-6-6-6-6-6-6-6-6-3-3-3-3--|
|  |----------4-4-4-4---------1-1-1-1--|
|  
|  |-----------------------------------|
|  |-----------------------------------|
|  |--6-6-6-6---------8-8-8-8----------|
|  |--6-6-6-6-6-6-6-6-8-8-8-8-3-3-3-3--|
|  |--4-4-4-4-6-6-6-6-6-6-6-6-3-3-3-3--|
|  |----------4-4-4-4---------1-1-1-1--|
|
|  |-----------------------------------|
|  |-----------------------------------|
|  |--6-6-6-6---------8-8-8-8----------|
|  |--6-6-6-6-6-6-6-6-8-8-8-8-3-3-3-3--|
|  |--4-4-4-4-6-6-6-6-6-6-6-6-3-3-3-3--|
|  |----------4-4-4-4---------1-1-1-1--|
|
|  |-----------------------------|
|  |-----------------------------|
|  |--6-6-6-6---------5-5-5-5-5--|
|  |--6-6-6-6-6-6-6-6-5-5-5-5-5--|
|  |--4-4-4-4-6-6-6-6-3-3-3-3-3--|
|  |----------4-4-4-4------------|
|

|-------------------------------------------------------------------------------|
| Pre-Solo                                                                      |
|-------------------------------------------------------------------------------|
|
|  |-----------------------------------|
|  |-----------------------------------|
|  |------------------8-8-8-8----------|  
|  |--3-3-3-3-6-6-6-6-8-8-8-8-8-8-8-8--|  
|  |--3-3-3-3-6-6-6-6-6-6-6-6-8-8-8-8--|
|  |--1-1-1-1-4-4-4-4---------6-6-6-6--|
|
|  |-----------------------------------|
|  |-----------------------------------|
|  |------------------8-8-8-8-------5--|  
|  |--3-3-3-3-6-6-6-6-8-8-8-8-8-8-8-5--|  
|  |--3-3-3-3-6-6-6-6-6-6-6-6-8-8-8-3--|
|  |--1-1-1-1-4-4-4-4---------6-6-6----|
|

|-------------------------------------------------------------------------------|
| Solo                                                                          |
|-------------------------------------------------------------------------------|
|
|
|  |-----------------------------------|
|  |-----------------------------------|
|  |--6-6-6-6---------8-8-8-8----------|
|  |--6-6-6-6-6-6-6-6-8-8-8-8-3-3-3-3--|
|  |--4-4-4-4-6-6-6-6-6-6-6-6-3-3-3-3--|
|  |----------4-4-4-4---------1-1-1-1--|
|  |                                   |
|  |-----------------------------------|
|  |--6-----8/9-----13/11---8/9---9----|
|  |-----------------------------------|  
|  |-----------------------------------|  
|  |-----------------------------------|
|  |-----------------------------------|
|  
|  |-----------------------------------|
|  |-----------------------------------|
|  |--6-6-6-6---------8-8-8-8----------|
|  |--6-6-6-6-6-6-6-6-8-8-8-8-3-3-3-3--|
|  |--4-4-4-4-6-6-6-6-6-6-6-6-3-3-3-3--|
|  |----------4-4-4-4---------1-1-1-1--|
|  |                                   |
|  |-----------------------------------|
|  |--6-----8/9-----13/11---8/9---9----|
|  |-----------------------------------|  
|  |-----------------------------------|  
|  |-----------------------------------|
|  |-----------------------------------|
|
|  |-----------------------------------|
|  |-----------------------------------|
|  |--6-6-------------8-8-8-8----------|
|  |--6-6-----6-6-----8-8-8-8-3-3-3-3--|
|  |--4-4-----6-6-----6-6-6-6-3-3-3-3--|
|  |----------4-4-------------1-1-1-1--|
|  |                                   |
|  |-----------------------------------|
|  |--6-----8/9-----13/11---8/9---9----|
|  |-----------------------------------|  
|  |-----------------------------------|  
|  |-----------------------------------|
|  |-----------------------------------|
|  
|  |---------------------------------------------------|
|  |---------------------------------------------------|
|  |--6-6-------------5-5-5-5-5-5-5-5-5-5-5-5-5-5-5-5--|
|  |--6-6-----6-6-----5-5-5-5-5-5-5-5-5-5-5-5-5-5-5-5--|
|  |--4-4-----6-6-----3-3-3-3-3-3-3-3-3-3-3-3-3-3-3-3--|
|  |----------4-4--------------------------------------|
|  |                                                   |
|  |---------------------------------------------------|
|  |--6-----8/9----11/13-13-13-13-13-13-13-13-13-13-13-|
|  |---------------------------------------------------|  
|  |---------------------------------------------------|  
|  |---------------------------------------------------|
|  |---------------------------------------------------|
|

|-------------------------------------------------------------------------------|
| Verse 3                                                                       |
|-------------------------------------------------------------------------------|
|
|  |-----------------------------------|
|  |-----------------------------------|
|  |------------------8-8-8-8----------|  
|  |--3-3-3-3-6-6-6-6-8-8-8-8-8-8-8-8--|  
|  |--3-3-3-3-6-6-6-6-6-6-6-6-8-8-8-8--|
|  |--1-1-1-1-4-4-4-4---------6-6-6-6--|
|
|  |-----------------------------------|
|  |-----------------------------------|
|  |------------------8-8-8-8-------5--|  
|  |--3-3-3-3-6-6-6-6-8-8-8-8-8-8-8-5--|  
|  |--3-3-3-3-6-6-6-6-6-6-6-6-8-8-8-3--|
|  |--1-1-1-1-4-4-4-4---------6-6-6----|
|

|-------------------------------------------------------------------------------|
| Chorus 3                                                                      |
|-------------------------------------------------------------------------------|
|
|  |-----------------------------------|
|  |-----------------------------------|
|  |--6-6-6-6---------8-8-8-8----------|
|  |--6-6-6-6-6-6-6-6-8-8-8-8-3-3-3-3--|
|  |--4-4-4-4-6-6-6-6-6-6-6-6-3-3-3-3--|
|  |----------4-4-4-4---------1-1-1-1--|
|  
|  |-----------------------------------|
|  |-----------------------------------|
|  |--6-6-6-6---------8-8-8-8----------|
|  |--6-6-6-6-6-6-6-6-8-8-8-8-3-3-3-3--|
|  |--4-4-4-4-6-6-6-6-6-6-6-6-3-3-3-3--|
|  |----------4-4-4-4---------1-1-1-1--|
|
|  |-----------------------------------|
|  |-----------------------------------|
|  |--6-6-6-6---------8-8-8-8----------|
|  |--6-6-6-6-6-6-6-6-8-8-8-8-3-3-3-3--|
|  |--4-4-4-4-6-6-6-6-6-6-6-6-3-3-3-3--|
|  |----------4-4-4-4---------1-1-1-1--|
|
|  |---------------------------------------------------|
|  |---------------------------------------------------|
|  |--6-6-6-6---------5-5-5-5-5-5-5-5-5-5-5-5-5-5-5-5--|
|  |--6-6-6-6-6-6-6-6-5-5-5-5-5-5-5-5-5-5-5-5-5-5-5-5--|
|  |--4-4-4-4-6-6-6-6-3-3-3-3-3-3-3-3-3-3-3-3-3-3-3-3--|
|  |----------4-4-4-4----------------------------------|
|

|-------------------------------------------------------------------------------|
| Outro (A Little Weird-Sounding)                                               |
|-------------------------------------------------------------------------------|
|
|  |---------------------------------------------|
|  |---------------------------------------------|
|  |---------6--6-6-8--8-8-7--7-7----------------|
|  |--3--3-3-6--6-6-8--8-8-7--7-7-6--6-6-2--2-2--|
|  |--3--3-3-4--4-4-6--6-6-5--5-5-6--6-6-2--2-2--|
|  |--1--1-1----------------------4--4-4-0--0-0--|
|
|  |---------------------------------------------|
|  |---------------------------------------------|
|  |---------6--6-6-8--8-8-7--7-7----------------|
|  |--3--3-3-6--6-6-8--8-8-7--7-7-6--6-6-2--2-2--|
|  |--3--3-3-4--4-4-6--6-6-5--5-5-6--6-6-2--2-2--|
|  |--1--1-1----------------------4--4-4-0--0-0--|
|
|  |---------------------------------------------|
|  |---------------------------------------------|
|  |---------6--6-6-8--8-8-7--7-7----------------|
|  |--3--3-3-6--6-6-8--8-8-7--7-7-6--6-6-2--2-2--|
|  |--3--3-3-4--4-4-6--6-6-5--5-5-6--6-6-2--2-2--|
|  |--1--1-1----------------------4--4-4-0--0-0--|
|
|  |---------------------------------------|
|  |---------------------------------------|
|  |---------6--6-6-8--8-8-7--7-7----------|
|  |--3--3-3-6--6-6-8--8-8-7--7-7-6-6-2-2--|
|  |--3--3-3-4--4-4-6--6-6-5--5-5-6-6-2-2--|
|  |--1--1-1----------------------4-4-0-0--|
|


Que te parecio? Calificalo con estrellas!!

Rating: 7.9/10 (668 votos)

Este fichero es trabajo propio de su transcriptor y representa su interpretación personal de la canción. El material contenido en esta página es para exclusivo uso privado, por lo que se prohibe su reproducción o retransmisión, así como su uso para fines comerciales.


Deja tus comentarios:

Letras de Green Day
Letras de canciones | Musica Independiente