Acordes y tablaturas para guitarra

Acordes y Tablaturas
Usuario: Password:

Buscar:
Acordes y Tablaturas >> Letra P >> Acordes de Pink Floyd >> Wish You Were Here
Tablatura de Wish You Were Here, Pink Floyd

Wish You Were Here

Pink Floyd






Tuning: EADGBe

      h - hammer on 
      p - pull off 
      b - bend string up
      / - slide up
       - slide down
      x - play 'note' with heavy damping


Intro:
  		Strum a few Times   Strum a few Times	
	    	     ^V^                 ^V^
e---------------------3-------------------3---|
B---------------------3-------------------3---|
G---------------------0-------0-----------0---|
D-------------0--2----0----2-----2--------0---|   * 2            
A------0h2------------2-------------------2---|     
E---3-----------------x-------------------3---|      

                Strum a few Times               Strum a few Times
                     ^V^                              ^V^
e---------------------3--------------------------------3---|
B---------------------3--------------------------------3---|
G---------------------0--------------------------------2---|
D-------------0--2----0------2-----0-------------------2---|   * 2
A------0h2------------2------------------2-------0-----0---|
E---3-----------------x--------------------------------0---|




e---3---|    
B---3---|
G---0---|
D---0---|   ( Guitar 1 continues to play over the solo )      
A---2---|
E---3---|




Solo: ( 2nd Guitar )

e----------------------------------------------------------|
B----------3---5--------3----------------------------------|
G-----2/4-----------4--------4----2---0--------------------|     
D------------------------------------------0---------0---0-|
A-----------------------------------------------1/2--------|
E----------------------------------------------------------|


e----3/5/3-------------------------------------------------|
B----3/5/3----3/5/3----3----3/5/3--------------------------| 
G-------------2/4/2----0----2/4/2---2p0----2/4-------------|
D------------------------------------------3/5-------------|
A----------------------------------------------------------|
E----------------------------------------------------------|


e---------------------------------------------------------------------|
B----------3--------5----5b---5----3--------------3-----5-------------|
G----2/4-------4----------------------2----4b----------------4b-----2-|
D---------------------------------------------------------------------|
A---------------------------------------------------------------------|
E---------------------------------------------------------------------|


e---------------------------------------------------------------------|
B---------3---------5-----5b-----5------3-----------------------------|  
G----2/4------4-----------------------------2----4b-------------------| 
D---------------------------------------------------------------------|
A---------------------------------------------------------------------|
E---------------------------------------------------------------------|

 
                              End Of Solo


                               ( Chords Used )
                             C     D    Am     G
                          e--0--|--2--|--0--|--3--|
                          B--1--|--3--|--1--|--0--|
                          G--0--|--2--|--2--|--0--|
                          D--2--|--0--|--2--|--0--|
                          A--3--|--0--|--0--|--2--|
                          E--0--|--0--|--0--|--3--|



C                           D
So, so you think you can tell 

              AM
Heaven from Hell

                   G
Blue Skies from pain

                       D
Can you tell a green field

                    C
From a cold steel rail 

                AM
A smile from a veil

                       G
So you think you can tell

                       C
Did they get you to trade

                    D
Your heroes for ghosts

                  AM
Hot Ashes for trees
 
                      G
Hot air for a cool breeze

                    D
Cold comfort for change
 
              C
Did you exchange?

                      AM
A walk on part in the war

                      G
For a lead role in a cage



Solo 2:  ( Guitar 1 )

                ( Guitar 2 plays Intro over Solo ) 

e--------10-10-------10-10---12-10-10------|
B---10/12-------10/12-----------------12---|
G------------------------------------------|
D------------------------------------------|
A------------------------------------------|
E------------------------------------------|

e---------10-10-10-12-10------------------------|
B---10/12--------------------12p10p8------------|
G-----------------------------------7-7---9-7---|
D---------------------------------------9-------|
A-----------------------------------------------|
E-----------------------------------------------|

e----------------10-10-10-----------12------------|
B-----8-10-10/12---------10--12/14----14p12p10----|
G---9---------------------------------------------|
D-------------------------------------------------|
A-------------------------------------------------|
E-------------------------------------------------|
                                                    
e---------10---------------------------12---------------|
B---10/12----12p10p8-10-12-12-8--12/14-----14p12p10--8--|
G-------------------------------------------------------|
D-------------------------------------------------------|
A-------------------------------------------------------|
E-------------------------------------------------------|



C                              D 
How I wish, how I wish you were here

            Am                                G
We're just two lost souls swimming in a fish bowl

             D
Year after year.
               
                C
Running over the same old ground.

                                  AM
What have we found the same old fears
             
                G
Wish you were here...


( Intro is played until the End )


Que te parecio? Calificalo con estrellas!!

Rating: 8.3/10 (266 votos)

Este fichero es trabajo propio de su transcriptor y representa su interpretación personal de la canción. El material contenido en esta página es para exclusivo uso privado, por lo que se prohibe su reproducción o retransmisión, así como su uso para fines comerciales.


Deja tus comentarios:

Letras de Pink Floyd
Letras de canciones | Musica Independiente