Enviado por: fede
Agrandar Letra
Reducir Letra
Imprimir

Acordes:
½ tono
| +0 |
½ tono
||
Volver


green day, american idiot

 Green Day – American Idiot

Comienzo:
   G# C#5 F#   C#5 G# F#
                                                      [x2]  
   G# C#5 F#   C#5 G# 

Verso:
   Don`t wanna be an American idiot.
    G# C#5 F#    C#5 G#5 F#5   
     
   Don`t want a nation under the new mania.
   G# C#5 F#    C#5 G#    
          
    And can you hear the sound of hysteria?
    G# C#5 F#    C#5 G# F#   
       
  The subliminal mind-fuck America.
     G# C#5 F#    C#5 G# 

Coro:
    C#5 - G# - D#5 - G#

    C#5 - G# - D#5  

Verso 2:
Well maybe I`m the faggot America.
  G# C#5 F#   C#5 G# F#   

I`m not a part of a redneck agenda.
  G# C#5 F#   C#5 G#  

Now everybody Do the propaganda.
G# C#5 F#   C#5 G# F#   

And sing along in the age of paranoia.
G# C#5 F#   C#5 G#  


Coro:
    C#5 - G# - D#5 - G#

    C#5 - G# - D#5  
 





Solo:

E|---------------------------------------------------------------|
B|---------------------------------------------------------------|
G|--10-10-10-10-10-10-10-10-8-6---8-8-8-8-8-8/10-8-6-5-----------|
D|---------------------------------------------------------------|
A|--8--8--8--8--8--8--8--8--6-4---6-6-6-6-6-6/8--6-4-3-----------|
E|---------------------------------------------------------------|

E|------------------------------------------------------------|
B|-----------------------------------9---9---9---9--9 -9-9-9-----------------|
G|--3-3-3-3-3-6-5-3-5-3----8---8---8---8-----------------------|
D|---------------------------------------------------------------|
A|---------------------------------------------------------------|
E|---------------------------------------------------------------|

E|---------------------------------------------------------------|
B|---------------------------------------------------------------|
G|--10-10-10-10-10-10-10-10-8-6---8-8-8-8-8/10-8-6-5-------------|
D|---------------------------------------------------------------|
A|--8--8--8--8--8--8--8--8--6-4---6-6-6-6-6/8--6-4-3-------------|
E|---------------------------------------------------------------|



E|---------------------------------------------------------------|
B|---------------------------------------------------------------|
G|--3-3-3-3-3-6-5-3-5-3--------------------------------------|
D|---------------------------------------------------------------|
A|---------------------------------------------------------------|
E|---------------------------------------------------------------|

   Guitarra 1:                     Guitarra 2: 2:           
      F# [x5]                    G#5 C#5 F#5   C#5 G#5 [x5] 



Coro:
    C#5 - G# - D#5 - G#

    C#5 - G# - D#5  



Final:

   G# C#5 F#   C#5 G#

   G# C#5 F#   C#5 G# F#

   G# C#5 F#   C#5 G# 

   G# C#5 F#   C#5 G# F#

   G# C#5 F#   C#5 G#
                          
 Nota:
La segunda guitarra utiliza todos los acordes en 5 
Aviso: Este fichero es trabajo propio de su transcriptor y representa su interpretación personal de la canción. El material contenido en esta página es para exclusivo uso privado, por lo que se prohibe su reproducción o retransmisión, así como su uso para fines comerciales.
comentario del colaborador: este tema se lo dedico a la pity fana de green day

Califica esta canción


Comentarios en Facebook