Acordes y tablaturas para guitarra

Acordes y Tablaturas
Usuario: Password:

Buscar:
Acordes y Tablaturas >> Letra G >> Acordes de Guns N´ Roses >> Don`t Cry
Acordes de Don`t Cry, Guns N´ Roses

Don`t Cry

Guns N´ Roses






am.c.dm.e.f.g.
 Intro:Am | Dm | G | C 
         Am | Dm | G |Am | 

Am            Dm              G                            C  
Talk to me softly  there`s - something in your eyes 
Am                      Dm               G                        C
Don`t hang your head in sorrow - and please don`t cry 
Am                    Dm               G                           C 
I know how you feel inside I`ve - I`ve been there before 
Am                 Dm                    G                           C  Somethin`s changin` inside you - and don`t you know 

 F              G       Am 
 Don`t you cry tonight - I still love you baby 
 F              G       Am 
Don`t you cry tonight 
F                G        C                  Am       G 
 Don`t you cry tonight - there`s a heaven above you baby 
F                     G       Am 
 and don`t you cry tonight 

Am            Dm              G                        C  
Give me a whisper [shhh] - and give me a sigh 
Am           Dm                G                       C
Give me a kiss before you - tell me goodbye 
Am             Dm                    G                                         C [V:3  2  3 2 0] 
Don`t you take it so hard now  and please, don`t take it so bad 
Am               Dm           G                             Am   G 
I`ll still be thinking of you - and the times we had .......................   baby 

F                      G         Am 
 And don`t you cry tonight 
F                 G        Am 
 Don`t you cry tonight 
F                G        C                Am       G 
 Don`t you cry tonight - there`s a heaven above you baby 
F                     G        Am 
 and don`t you cry tonight 
Solo de Guitarra
|------------------------------------------------------------------------|
|-------------------------------8---------------8------------------------|
|---7brp5h7---7br--5--7b-----7br5--7b----7br-5---------------------------|
|-----------------------------------------------------------7--5---------|
|------------------------------------------------------------------5br---|
|------------------------------------------------------------------------|

|------------------------------------------------------10b---8-----------|
|---------------------------------------------8h10--------------10-------|
|---------------------------5--5h7---7s9---------------------------------|
|----------------5h7--7--------------------------------------------------|
|--3-----5s7-------------------------------------------------------------|
|-----5------------------------------------------------------------------|

|-------------------------------------------------15--15--15-------------|
|-----------------------------------------15b*-----------------15rb--13--|
|--9---8---7h8p7---5---7---5---------------------------------------------|
|---------------------------------7---5----------------------------------|
|------------------------------------------------------------------------|
|------------------------------------------------------------------------|

|--------15--15--15----------------------------------------------13------|
|--15b*--------------15rb--13----------12--15--13--12----------------13--|
|----------------------------------13------------------13----------------|
|------------------------------14--------------------------14--15--------|
|------------------------------------------------------------------------|
|------------------------------------------------------------------------|

|------------------------------------------------------------------------|
|--15br---15br--13------------------------------------8------------------|
|-------------------------12b12b---9---6---7----------7b*----------------|
|------------------------------------------------------------------------|
|------------------------------------------------------------------------|
|------------------------------------------------------------------------|



Acompañamiento del punteo: 
 | Dm | F | G | Am  G | 
 | F | G | Am | Am | 

 | F | G | E | F | 
 | F | G |  Am 

Dm                 G         C     Am 
And please remember - that I never lied 
Dm                 G         C   Am 
and please remember - how I felt inside now honey 
Dm              G                            C       Am 
You gotta make it your own way - but you`ll be all right now sugar 
Dm        G                     C          Am          G 
you feel better tomorrow - come the morning light now baby 

F                      G         Am 
 And don`t you cry tonight 
F                 G        Am 
 Don`t you cry tonight 
F                G        C                  Am       G 
 Don`t you cry tonight - there`s a heaven above you baby 
F                G      F                        G 
 Don`t you cry    -   don`t you ever cry 
F               G       E                 F 
 Don`t you cry tonight - baby maybe someday 
F                G     F                         G 
 Don`t you cry   -   don`t you ever cry 
F                G       C 
 Don`t you cry tonight 

 

Que te parecio? Calificalo con estrellas!!

Rating: 8.5/10 (2262 votos)

Este fichero es trabajo propio de su transcriptor y representa su interpretación personal de la canción. El material contenido en esta página es para exclusivo uso privado, por lo que se prohibe su reproducción o retransmisión, así como su uso para fines comerciales.


Comentario de Daniel
espero que les guste Y el solo espero que lo saquen es medio facil ami me salio
Deja tus comentarios:

Letras de Guns N´ Roses
Letras de canciones | Musica Independiente