Enviado por: Jorge Alberto zapata Braga
Agrandar Letra
Reducir Letra
Imprimir



deed purple, smoke on the water

(Q):quintas (s):slide
   (son acordes)
(al principio todas son quintas)
-----------------------------------
-----------------------------------
-----3--5-------3--6-(s)<---5------
-5--3--5----5--3----6(s)-<-5-------
-5---------5-----------------------
-----------------------------------                        


(aqui es puro rasgueo)
-3-------------------------------
-3-------------------------------
---------------------------------                    
---------------------------------
---------------------------------
-3-------------------------------

3---------------------------------
3---------------------------------
3-----5----------------------------
3-----5----------------------------
3---------------------------------
3---------------------------------  


1---------------------------------
1---------------------------------
1---3------------------------------
1---3------------------------------
1---------------------------------
1---------------------------------                    
Aviso: Este fichero es trabajo propio de su transcriptor y representa su interpretación personal de la canción. El material contenido en esta página es para exclusivo uso privado, por lo que se prohibe su reproducción o retransmisión, así como su uso para fines comerciales.

Califica esta canción


Comentarios en Facebook