Acordes y tablaturas para guitarra

Acordes y Tablaturas
Usuario: Password:

Buscar:
Acordes y Tablaturas >> Letra S >> Acordes de System of a down >> Spiders
Tablatura de Spiders, System of a down

Spiders

System of a down






|------------------------------|
    A|------------------------------|
    F|------------------------------|
    C|------------------------------|
    G|-----9----9----7----7---7---7-|
    C|--0-----0----0----0---0-------|

    D|--------------------------|
    A|--------------------------|
    F|--------------------------|
    C|--------------------------|
    G|-----9----9----7----7---7-|
    C|--0-----0----0----0-------|

    D|---------------------------------|
    A|---------------------------------|
    F|---------------------------------|
    C|---------------------------------|
    G|-----9----10----12----10---9h10--|
    C|--0-----0----0-----0----0--------|

    D|----------------------------|
    A|----------------------------|
    F|----------------------------|
    C|----------------------------|
    G|-----7---7---7-7--|
    C|---0---0---0------|

     CHORUS:

    D|-----------------------------------------|
    A|-----------------------------------------|
    F|-----------------------------------------|
    C|-----------------------------------------|
    G|--10--10--10--10-10-10-10-10--10--10-10--|
    C|--10--10--10--10-10-10-10-10--10--10-10--|

    D|-----------------------------------------------|
    A|-----------------------------------------------|
    F|-----------------------------------------------|
    C|-----------------------------------------------|
    G|--10-10-10-10-10--10-10--10-10-10-10-10-10-10--|
    C|--10-10-10-10-10--10-10--10-10-10-10-10-10-10--|

    D|----------------------------------|
    A|----------------------------------|
    F|-----14---12---15----14----12/14--|
    C|------x----x----x-----x-----x-----|
    G|-----12---10---13----12----10/12--|
    C|--0----------------0-----0--------|

    D|------------------------------------------|
    A|------------------------------------------|
    F|-----12---12/14--10-10-10-10-10-10-10-10--|
    C|------x----x------x--x--x--x--x--x--x--x--|
    G|-----10---10/12---8--8--8--8--8--8--8--8--|
    C|--0---------------------------------------|

    D|-----------------------------------------|
    A|-----------------------------------------|
    F|-----------------------------------------|
    C|-----------------------------------------|
    G|--10--10--10--10-10-10-10--10-10--10-10--|
    C|--10--10--10--10-10-10-10--10-10--10-10--|

    D|----------------------------------|
    A|----------------------------------|
    F|----------------------------------|
    C|----------------------------------|
    G|--8-8-8-8-8--8-8-7-7-7-7-7-7-7-7--|
    C|--8-8-8-8-8--8-8-7-7-7-7-7-7-7-7--|

     GUITAR SOLO: 

     hit each chord multiple times

    D|----------------------------------------------|
    A|----------------------------------------------|
    F|--14------15------18------14------15------18--|
    C|---x-------x-------x-------x-------x-------x--|
    G|--12------13------16------12------13------16--|
    C|----------------------------------------------|

     then play the chords below multiple times each, but 
     alternate between the note played by the first finger 
     and the note played by the third finger

    D|----------------------------------------------|              |---------------|
    A|----------------------------------------------|              |---------------|
    F|--19------20------18------19------20------18--|    for       |-----19----19--|
    C|---x-------x-------x-------x-------x-------x--|    example   |---------------|
    G|--17------18------16------17------18------16--|              |--17----17-----|
    C|----------------------------------------------|              |---------------|

     OUTRO:

    D|--------------------------------|
    A|--------------------------------|
    F|----10----9----12---10----9/10--|
    C|-----x----x-----x----x----x-----|
    G|-----8----7----10----8----7/-8--|
    C|--0-----0----0-----0----0-------|

    D|--------------------------------|
    A|--------------------------------|
    F|-----9----9/10---7----7----7-7--|
    C|-----x----x------x----x----x-x--|
    G|-----7----7/-8---5----5----5-5--|
    C|--0-----0-----------0---0-------|

    D|----------------------------------|
    A|----------------------------------|
    F|-----14---12---15----14----12/14--|
    C|------x----x----x-----x-----x-----|
    G|-----12---10---13----12----10/12--|
    C|--0----------------0-----0--------|

    D|---------------------|
    A|---------------------|
    F|-----12---12/14--10--|
    C|------x----x------x--|
    G|-----10---10/12---8--|
    C|--0------------------|



_______________________________________________________





Versão 2
-======-

Bass Intro for elecltric guitar

Eb|------------------------------------------------------------
Bb|------------------------------------------------------------
Gb|------------------------------------------------------------
 B|----2-2---0-0-0-----2-2---0-0-0----3-2-5-3-2/3--2-2--0-0-0---
Gb|------------------------------------------------------------
 B|--0--0--0--0--0--00--0--0--0-0--00--0-0-0-0-0--0-0-0--0-0--00

Electric Guitar(same tuning)

Fig1
 B|--10101010101010101010101010101010
Gb|-10101010101010101010101010101010 


Que te parecio? Calificalo con estrellas!!

Rating: 8.3/10 (236 votos)

Este fichero es trabajo propio de su transcriptor y representa su interpretación personal de la canción. El material contenido en esta página es para exclusivo uso privado, por lo que se prohibe su reproducción o retransmisión, así como su uso para fines comerciales.


Deja tus comentarios:

Letras de System of a down
Letras de canciones | Musica Independiente