Enviado por: pablo
Agrandar Letra
Reducir Letra
Imprimir











El Ultimo Ke Zierre, Botas Y Cadenas

intro:

--x--x----x--x----x--        
--x--x----x--x----x--
--x--x----3--3----x--   x4
--3--3----3--3----3--
--3--3----1--1----3--
--1--1----1--1----1--

no no no no te cogeran
los juegos de la banda policial
tu lograras eskapr
tu a la paz joderas

(ai uno ve cuando tocar los acordes, pero esa parte está 100% correcta)

--x-x--x-x--x-x--x-x------
--x-x--x-x--x-x--x-x------
--x-x--3-3--x-x--5-5------  x todas las veces k lo repita
--3-3--3-3--3-3--5-5------
--3-3--1-1--3-3--3-3------
--1-1--1-1--1-1--3-3------

y asi es toda la cancion, la saké oi n la mañana asi k no he sacado el solo. pero está correcta, tienes k escuchar la cancion para saber cuando cambia de acorde,, 
Aviso: Este fichero es trabajo propio de su transcriptor y representa su interpretación personal de la canción. El material contenido en esta página es para exclusivo uso privado, por lo que se prohibe su reproducción o retransmisión, así como su uso para fines comerciales.
comentario del colaborador: ya listo, está echo, un saludo pa mis colegas (hombres) y pa UNA colega(hembra)ajajajajaj xD roberto- matias- pedro- chalo- pepe pancho- RUTI aaaaa y un saluo pa la natty by!!!!

Califica esta canción


Comentarios en Facebook