Enviado por:
Agrandar Letra
Reducir Letra
Imprimir


Otras Versiones de Cancion Del Mariachi:









Antonio Banderas, Cancion Del Mariachi

==============================  INTRODUCCION  ===============================

-------7-7--7-7--8-7--7----8-7-7----5--|-- 5-5--5-5-7-5--5-5-7-5-5----
-----8-8-8--8-8--8-8--8----8-8-8----7--|- -7-7--7-7-7-7--7-7-7-7-7-7-8
---9--------------------9--------9----|-7------------------------8-9
-9-------------------------------------|------------------------------
---------------------------------------|------------------------------
---------------------------------------|------------------------------





--------------12---------------------11-------------------------------
----12-----12----12----12--------12------12--10--12-------------------
-9------12----------12------------------------------------------------
---------------------------9------------------------9-----------------
----------------------------------------------------------------------
----------------------------------------------------------------------

----11------------------12-----------------12-------------------------
-12----12-10-12------12----12----12-----12----12----12----------------
------------------------------12-----------------12-------------------
-----------------9------------------9------------------9--------------
----------------------------------------------------------------------
----------------------------------------------------------------------

----11----------------|--11-------------------------12--------------12
-12----12-10-12--------------10--12--------10-12-------------12-------
----------------------------------------------------------12----------
-----------------9--------------------9-----------9--------------9----
----------------------------------------------------------------------
----------------------------------------------------------------------

-----------12---|---------10----10---8------8---7---7---5---5--3--3---
-----12----------------12----12---------10--------8-------7------5----
-12-----------------12------------------------------------------------
---------9------------------------------------------------------------
----------------------------------------------------------------------
----------------------------------------------------------------------

-2---3---0---0--------------------------------------------------------
---3-------0----3--0--1--0--------------------------------------------
-------------------------------4-----2--4--5-4-2-------2--------------
-------------------------------------------------5-4-----5-4-2-~~~----
-------------------------------------------------------------------2--
----------------------------------------------------------------------

----------------------------------------------------------------------
----------------------------------------------------------------------
-------8--9--11----------10--11--12-----------8--9--11----------------
-9--9--------------9--9-----------------9--9-------------9------------
----------------------------------------------------------------------
----------------------------------------------------------------------


---7--5--3--2--0------------------------------------------------------
----------------------------------------------------------------------
---8--5--4--2--0------------------------------------------------------
----------------------------------------------------------------------
----------------------------------------------------------------------
----------------------------------------------------------------------
Aviso: Este fichero es trabajo propio de su transcriptor y representa su interpretación personal de la canción. El material contenido en esta página es para exclusivo uso privado, por lo que se prohibe su reproducción o retransmisión, así como su uso para fines comerciales.

Califica esta canción


Comentarios en Facebook