Acordes y tablaturas para guitarra

Acordes y Tablaturas
Usuario: Password:

Buscar:
Acordes y Tablaturas >> Letra g >> Acordes de gwen stefani >> dont speak
Tablatura de dont speak, gwen stefani

Dont speak

Gwen stefani






--------ﯯ뻻 Don`t Speak ﯯ뻻--------
Performed by No Doubt off the Tragic Kingdom album
Keep in mind this is how I think it is played.  It may be 
played totally different.  
Transcribed by David([email protected])
Don`t use a pick.  
|-----------------|
|-4---4---4---4---|
|-5---5---5---5---|     3 times
|---5---5---5---5-|
|-----------------|
|-----------------|
|-----------------|-----------------|-----------------|
|-3---3---1---1---|-3---3---3---3---|-1---1---3---3---|
|-3---3---1---1---|-3---3---3---3---|-1---1---3---3---|
|---5---5---3---3-|---3---3---5---5-|---3---3---3---3-|
|-----------------|-----------------|-----------------|
|-----------------|-----------------|-----------------|
|-----------------|-----------------|-----------------|-----------------|
|-4---4---3---3---|-1---1---3---3---|-3---3---4---4---|-1---1---3---3---|
|-4---4---3---3---|-1---1---3---3---|-3---3---4---4---|-1---1---3---3---|
|---5---5---5---5-|---3---3---3---3-|---5---5---5---5-|---3---3---3---3-|
|-----------------|-----------------|-----------------|-----------------|
|-----------------|-----------------|-----------------|-----------------|
|-----------------|-----------------|-----------------|-6---------------|
|-4---4---3---3---|-1---1---3---3---|-8---8---6---6---|-8---------------|
|-4---4---3---3---|-1---1---3---3---|-8---8---7---7---|-8---------------|
|---5---5---5---5-|---3---3---3---3-|--10--10---8---8-|-8---------------|
|-----------------|-----------------|-----------------|-6---------------|
|-----------------|-----------------|-----------------|-----------------|
This part I know for sure is not completely right, but it`s good enough.
I`m just going to give you the basic chords, you listen to the strumming
and try to figure out the notes in between also
|-8-------------------------8----|
|-9--------6------------6---9----|
|-10---6---8---8----6---8---10---|
|-10---8---8---10---8---8---10---|
|-8----8---6---10---8---6---8----|
|------6-------8----6------------|
When ever I learn the rest or the real way to play the chorus, I`ll
post it.  If anyone has any corrections or knows more, please let me know at 


Que te parecio? Calificalo con estrellas!!

Rating: 6.8/10 (148 votos)

Este fichero es trabajo propio de su transcriptor y representa su interpretación personal de la canción. El material contenido en esta página es para exclusivo uso privado, por lo que se prohibe su reproducción o retransmisión, así como su uso para fines comerciales.


Comentario de daniela
muy buena cancion
Deja tus comentarios:

Letras de gwen stefani
Letras de canciones | Musica Independiente