Acordes y tablaturas para guitarra

Acordes y Tablaturas
Usuario: Password:

Buscar:
Acordes y Tablaturas >> Letra t >> Acordes de turf >> pasos al costado
Acordes de pasos al costado, turf

Pasos al costado

Turf






a.bm.d.e.fsosm.g.
e ------------------------|
B ------------------------|
G ---------2--2-----------|
D -0-2-0-4------4-2-0-----| x 2
A ------------------------|
E ------------------------|

     D                                 Bm
nunca dormi tan poco tal ves viva demasiado
 F#m                                      A
no reconosco el punto justo donde hay q frenar
      D                                 Bm
me preguntaba lo que habia dado y lo que me habian dejado
 F#m                                 A
me respondieron q en la vida hay q aceptar
    Bm                          D
de cualquier modo que te toque esta bien
     A                           E
de cualquier modo que te toque esta mal
G                         D                     A
mejor abrir los ojos para saber lo que te gustaria ser


e ------------------------|
B ------------------------|
G ---------2--2-----------|
D -0-2-0-4------4-2-0-----| x 2
A ------------------------|
E ------------------------|

 D                                 Bm
debo haber estado dando pasos al costado
 F#m                                 A
paralizado por el miedo de saber la verdad
      D                                 Bm
me imaginaba que lo que habiamos pasado habia quedado pisado
F#m                                  A
pero encontramos una nueva forma de hablar
    Bm                          D
de cualquier modo que te toque esta bien
     A                           E
de cualquier modo que te toque esta mal
G                         D                     A
mejor abrir los ojos para saber lo que te gustaria ser

E               D                    A
es el momento que todo comienza de vuelta
E               D                    A
mi corazon esta alerta y el tuyo tambien
E               D                    A
todo este tiempo vivido me sirve de ejemplo
G                 A               G             A
para no volver, para no volver, para no volver, a caer

Solo (D - Bm - F#m - A)
e ---------------------------------------|
B ---------------------------------------|
G ---------------------------------------|
D ---------------------------------------|
A -0-2-4-5--5-5-5-5-5-5-5-5--5-4-2-5-2---|
E ---------------------------------------|

e ---------------------------------------|
B ---------------------------------------|
G ---------------------------------------|
D ---------------------------------------|
A -2-2-2-4-4--4-4-4-4-4-4-3-0--4-3-0-----|
E ---------------------------------------|

    Bm                          D
de cualquier modo que te toque esta bien
     A                           E
de cualquier modo que te toque esta mal
G                         D                     A
mejor abrir los ojos para saber lo que te gustaria ser

E               D                    A
es el momento que todo comienza de vuelta
E               D                    A
mi corazon esta alerta y el tuyo tambien
E               D                    A
todo este tiempo vivido me sirve de ejemplo
G                 A               G             A
para no volver, para no volver, para no volver, a caer
G                 A               G             A
para no volver, para no volver, para no volver, a caer

Punteo del final (G - A)

e -----5-----5-----5-----5-----5-----9/109--7/5-5---|
B -7-8---7-8---7-8---7-8---7-8-----------------------|
G ---------------------------------------------------|
D ---------------------------------------------------| x 2
A ---------------------------------------------------|
E ---------------------------------------------------|

Que te parecio? Calificalo con estrellas!!

Rating: 8.7/10 (648 votos)

Este fichero es trabajo propio de su transcriptor y representa su interpretación personal de la canción. El material contenido en esta página es para exclusivo uso privado, por lo que se prohibe su reproducción o retransmisión, así como su uso para fines comerciales.


Deja tus comentarios:

Letras de turf
Letras de canciones | Musica Independiente