Acordes y tablaturas para guitarra

Acordes y Tablaturas
Usuario: Password:

Buscar:
Acordes y Tablaturas >> Letra I >> Acordes de Intoxicados >> NUNCA QUISE
Tablatura de NUNCA QUISE, Intoxicados

NUNCA QUISE

Intoxicados






RIFF A:

e -----4-5---
B -5-7-----7-

RIFF B:

e ------4-5-----------------------------------------
B --5-7-----7--5-3-2--0--0-0-0-2-2-2-3-3-5-5-5-7-7-7




INTRO . Bm C#m F#m Bm E A A7   version 2 : D E A D E A F#m Bm Cm#


   D                 Bm
Nunca quise tanto a nadie como vos
     C#m                 F#m
Por eso es que empiezo a dudar         RIFF A
    Bm                         E
Si seremos hermanos que nos separaron
       A                        A7
Y nosotros sin saberlo nos volvimos a juntar

    D                Bm
Tu sangre es roja, la mía también
      C#m                   F#m
Pero no me equivoco, algo tendremos que ver    RIFF A
        Bm                  E
Somos indios latinos con guitarra eléctrica
   A                A7
Y comunicados a través de Internet


D       E             A
Para odiar hay que querer     RIFF A
D       E             A
Para destruir hay que hacer  RIFF B (HASTA EL FINAL DEL ESTRIBILLO)
      D      E         A          F#m
Y estoy orgulloso de quererte romper
Bm                     E
La cabeza contra la pared


      D                      Bm
Y por todas esas cosas que tenemos en común
      C#m                      F#m
Hace tiempo ya marchaste de acá     RIFF A
       Bm                     E
Te cansaste de mi, yo me canse de vos
          A                  A7
Pero cuando nos miramos sabemos que no es verdad

        D               Bm
Porque tanto te quise y tanto te quiero
         C#m                F#m
Siempre una marca tuya llevará mi corazón     RIFF A
        Bm               E
Disculpa si te parece raro
                    A                    A7
Pero comparto la opinión que escuché en una canción: Let It Be
      D      Bm              C#m             F#m
Si la amas déjala ser, si la quieres déjala volar
       Bm                              E
Nunca fui tu patrón, no quisiera cambiarte
       A                       A7
y no quiero que pierdas tu personalidad

D       E             A
Para odiar hay que querer      RIFF A
D       E             A
Para destruir hay que hacer    RIFF B (HASTA EL FINAL DEL ESTRIBILLO)
     D      E           A         F#m
Y estoy orgulloso de quererte romper
Bm                     E
La cabeza contra la pared

D      E               A
Para dejar hay que beber RIFF A
D       E          A
Para morir primero hay que nacer RIFF B (HASTA EL FINAL DEL ESTRIBILLO)
       D            E         A         F#m
Siento ganas nuevamente de tirarme a tus pies
      Bm                        E
Y llevarte a mi morada otra vez

Punteo Base (D,E, A , D, E ,A  , D, E, A, F#m,Bm, E ) 2 veces lo repite
e -4-5-------------0--------------------------------
B -----7-5-3------2--2--2---------------------------
G -------------1/2-----2----2-1---------------------
D ------------------------------2-------------------
A --------------------------------------------------
E --------------------------------------------------

e ------4-5-----------------------------------------
B --5-7-----7--5-3-2--0--0-0-0-2-2-2-3-3-5-5-5-7-7-7
G --------------------------------------------------
D --------------------------------------------------
A --------------------------------------------------
E --------------------------------------------------

e -4-4-5--------------------------------------------
B -------7-5-3--2-0---------------------------------
G ------------------2-1-----------------------------
D --------------------------------------------------
A --------------------------------------------------
E --------------------------------------------------

e ------4-5-----------------------------------------
B --5-7-----7--5-3-2--0--0-0-0-2-2-2-3-3-5-5-5-7-7-7
G --------------------------------------------------
D --------------------------------------------------
A --------------------------------------------------
E --------------------------------------------------

e -4-4-5-5-5-7-7-7-8-8------------------------------
B --------------------------------------------------
G --------------------------------------------------
D --------------------------------------------------
A --------------------------------------------------
E --------------------------------------------------

D       E             A
Para odiar hay que querer RIFF A
D       E             A
Para destruir hay que hacer  RIFF B (HASTA EL FINAL DEL ESTRIBILLO)
     D        E         A       F#m
Y estoy orgulloso de quererte romper
Bm                     E
La cabeza contra la pared

D      E               A
Para dejar hay que beber  RIFF A
D       E          A
Para morir primero hay que nacer  RIFF B (HASTA EL FINAL DEL ESTRIBILLO)
       D            E         A         F#m
Siento ganas nuevamente de tirarme a tus pies
      Bm                        E
Y llevarte a mi morada otra vez

D          E            A
Si lo sembrás lo recoges  RIFF A
D         E             A
Y si esperás vas a entender  RIFF B (HASTA EL FINAL DEL ESTRIBILLO)
             D     E           A      F#m
Cuando las cosas salen como no las espero,
   Bm                    E
La vida me hace mas guerrero.

e ---4-5--------------------------------------------
B -------7-5-3--2-0---------------------------------
G ------------------2-1-----------------------------
D --------------------------------------------------
A --------------------------------------------------
E --------------------------------------------------

e ------4-5-----------------------------------------
B --5-7-----7--5-3-2--0--0-0-0-2-2-2-3-3-5-5-5-7-7-7
G --------------------------------------------------
D --------------------------------------------------
A --------------------------------------------------
E -------------------------------------------------- 




NO ESPECIFICO ARCORDES POR Q CREO Q TODOS YA LO SABEN....CHAUUUUUUUU

Que te parecio? Calificalo con estrellas!!

Rating: 7.0/10 (332 votos)

Este fichero es trabajo propio de su transcriptor y representa su interpretación personal de la canción. El material contenido en esta página es para exclusivo uso privado, por lo que se prohibe su reproducción o retransmisión, así como su uso para fines comerciales.


Comentario de JUANCYTHO
HOLA COMO ESTAN==? BUENO ESTE TEMA YO LO CONSIDERO MUY BUENO,PARA MI LOS TAB. ESTAN BASTANTE BIEN...BUENO SI NECESITAN ALGUN TABBBB. NO DUDEN AVISSARME,,,,, A SI HAY ERROR EN ESTO TAMBIEM AVISENME
Deja tus comentarios:

Letras de Intoxicados
Letras de canciones | Musica Independiente