Enviado por:

Callejeros, 9 De Julio

Imprimir
. . .  D 		  G
|-------------------------------------|
|-------8-7~--7~-7~-7-----8-8-8-7-----|
|-7-9-7---------------9-7---------9-7-|
|-------------------------------------|
|-------------------------------------|
|-------------------------------------|
	     D			  G
|---------15-14~--14~-14~-14------15-15-15-14-------|
|-15-17-15-------------------17-15------------17-15-|
|---------------------------------------------------|
|---------------------------------------------------|
|---------------------------------------------------|
|---------------------------------------------------|

D		 G
Está mal, no te toques más.
Aviso: Este fichero es trabajo propio de su transcriptor y representa su interpretación personal de la canción. El material contenido en esta página es para exclusivo uso privado, por lo que se prohibe su reproducción o retransmisión, así como su uso para fines comerciales.
comentario del colaborador: shiirly te amo

Califica esta canción


Comentarios en Facebook