Acordes y tablaturas para guitarra

Acordes y Tablaturas
Usuario: Password:

Buscar:
Acordes y Tablaturas >> Letra s >> Acordes de sistem of a down >> toxicity
Tablatura de toxicity, sistem of a down

Toxicity

Sistem of a down






Toxicity
System of a Down

Muy buena version de este temaso si lo quieren tocar en vivo mejor busque un buen cantante por q este se sarpa mal usen una buena distorcion y queda muy biem la intro con algo de eco
AGUANTE SOAD
afinacion usada: (EADGBE)


ordem

INTRO
REFRAN
VERSO
REFRAN
VERSO
REFRAN
POSTREFRAN
REFRAN
FINAL

__________________________________________________________


INTRO:(limpio)
e|------------------------------------------------------
B|---8---8---8---8---8---8-/--11--11--11--11--11--11----
G|-5---5---5---5---5---5---/-8---8---8---8---8---8------
D|------------------------------------------------------
A|------------------------------------------------------
E|------------------------------------------------------

e|---------------------------------8---8----------------
B|---8---8---8-9--9-8--8----11----------11--11--9---9-8-
G|-5---5---5-----5----5--8-----8-----8-----8------8-----
D|------------------------------------------------------
A|------------------------------------------------------
E|------------------------------------------------------

refran:(distorcion)
   C         Eb D C D C        G#        G
e|------------------------------------------------|
B|------------------------------------------------|
G|-5----------------------------------------------|
D|-5---------8-7-5-7-5--------6--6-6-6--5--5-5-5--| 2X
A|-3---------6-5-3-5-3--------6--6-6-6--5--5-5-5--|
E|----------------------------4--4-4-4--3--3-3-3--|
          [MUTED]
   Eb D C D C C                G#        G
e|--------------    ------------------------------|
B|--------------    ------------------------------|
G|--------------    ------------------------------|
D|-8-7-5-7-5-5--    ----------6--6-6-6--5--5-5-5--|
A|-6-5-3-5-3-3— 4x  ----------6--6-6-6--5--5-5-5--|
E|--------------    ----------4--4-4-4--3--3-3-3--|
   [PALM MUTED]
   C         Eb D C D C        G#        G
e|------------------------------------------------|
B|------------------------------------------------|
G|-5----------------------------------------------|
D|-5---------8-7-5-7-5--------6--6-6-6--5--5-5-5--| 2X
A|-3---------6-5-3-5-3--------6--6-6-6--5--5-5-5--|
E|----------------------------4--4-4-4--3--3-3-3--|

VERSO:

e|----------------------------------------------------
B|---8---8---8---8---8---8-/--11--11--11--11--11--11--
G|-5---5---5---5---5---5---/-8---8---8---8---8---8----
D|----------------------------------------------------
A|----------------------------------------------------
E|----------------------------------------------------

e|---------------------------------8---8--------------
B|---8---8---8--9---9--8---8--10--------10--10--9---9-
G|-5---5---5------5------5---8---8---8-----8------8---
D|----------------------------------------------------
A|----------------------------------------------------
E|----------------------------------------------------

e|--------------------------------10----11----10------
D|---8---8---8---8---8---8-/--11------11----11----11--
G|-5---5---5---5---5---5---/-8---8---8-----8-----8----
D|----------------------------------------------------
A|----------------------------------------------------
E|----------------------------------------------------

e|-----------------------------------8---8--------------
B|---8---8---8-11--11-10--10---11---------11--11--9---9-
G|-5---5---5------8------8----8---8----8-----8------8---
D|------------------------------------------------------
A|------------------------------------------------------
E|------------------------------------------------------

e|--------------------------------10----11----10------
B|---8---8---8---8---8---8-/--11------11----11----11--
G|-5---5---5---5---5---5---/-8---8---8-----8-----8----
D|----------------------------------------------------
A|----------------------------------------------------
E|----------------------------------------------------

e|---------------------------------8---8--------------
B|---8---8---8--9---9--8---8--11--------11--11--9---9-
G|-5---5---5------5------5---8---8---8-----8------8---
D|----------------------------------------------------
A|----------------------------------------------------
E|----------------------------------------------------

post refran: (distorcion)

e|----------------------------------------------------
B|----------------------------------------------------
G|----------------------------------------------------
D|---------------------------------------------------- 2x
A|-3---3-3-3-3-6-33-5^------3---3-3-3-3--6-33-5^------
E|----------------------------------------------------

e|-----------------------------------------
B|-----------------------------------------
G|----------------------------------------- x 2
D|-875—5-5-5-775—5—5-5-875-5-5-5-775-5-5-5-
A|-653-3-3-3-553-3-3-3-653-3-3-3-553-3-3-3-
E|-----------------------------------------
  [PALM MUTED...........................]

e|------------------------
B|------------------------
G|------------------------
D|-5---5-5-5-5-885--------
A|-3---3-3-3-3-663-5^----- 4x
E|------------------------
| [PALM MUTED...]


e|------------------------------------------
B|------------------------------------------
G|------------------------------------------
D|-875-5-5-5-775-5-5-5-875-5-5-5-775-5-5-5-- x 2
A|-653-3-3-3-553-3-3-3-653-3-3-3-553-3-3-3--
E|------------------------------------------
 | [PALM MUTED...........................]

FINAL: (distorcion)

e|------------------------------------------
B|------------------------------------------
G|------------------------------------------
D|-875-5-5-5-775-5-5-5-875-5-5-5-775-5-5-5-- x 2
A|-653-3-3-3-553-3-3-3-653-3-3-3-553-3-3-3--
E|------------------------------------------
   [PALM MUTED...........................]

e|-------------------------
B|-------------------------
G|-------------------------
D|-5---5-5-5-5-885---------
A|-3---3-3-3-3-663-5^------ 4x
E|-------------------------
LETRA:

Conversion, software version 7.0,
Looking at life through the eyes of a tire hub,
Eating seeds as a past time activity,
The toxicity of our city, of our city,

New, what do you own the world?
How do you own disorder, disorder,
Now, somewhere between the sacred silence,
Sacred silence and sleep,
Somewhere, between the sacred silence and sleep,
Disorder, disorder, disorder.

More wood for their fires, loud neighbors,
Flashlight reveries caught in the headlights of a truck,
Eating seeds as a past time activity,
The toxicity of our city, of our city,

New, what do you own the world?
How do you own disorder, disorder,
Now, somewhere between the sacred silence,
Sacred silence and sleep,
Somewhere, between the sacred silence and sleep,
Disorder, disorder, disorder.

New, what do you own the world?
How do you own disorder, disorder,
Now, somewhere between the sacred silence,
Sacred silence and sleep,
Somewhere, between the sacred silence and sleep,
Disorder, disorder, disorder.

When I became the sun,
I shone life into the man`s hearts,
When I became the sun,
I shone life into the man`s hearts.Toxicity
System of a Down


Que te parecio? Calificalo con estrellas!!

Rating: 8.9/10 (1348 votos)

Este fichero es trabajo propio de su transcriptor y representa su interpretación personal de la canción. El material contenido en esta página es para exclusivo uso privado, por lo que se prohibe su reproducción o retransmisión, así como su uso para fines comerciales.


Comentario de tomas
DUDAS CONSEJOS : [email protected]
Deja tus comentarios:

Letras de sistem of a down
Letras de canciones | Musica Independiente