Acordes y tablaturas para guitarra

Acordes y Tablaturas
Usuario: Password:

Buscar:
Acordes y Tablaturas >> Letra S >> Acordes de System of a down >> Chop suey!
Tablatura de Chop suey!, System of a down

Chop suey!

System of a down






Chop Suey
System of a Down

esta cancion usa muchos efectos en especial en el esribillo y pre estribillo, ademas para tocarla en vivo yo recomiendo tocarla con dos guitarras para q sea un sonido mas relleno
Buena suerte!!

afinacion: (eBGDAE)

intro:
e|---------------------------------------------|
B|---------------------------------------------|
G|-33333/55555/22222/00000---------------------|
D|-55555/77777/33333/11111---------------------|
A|---------------------------------------------|
E|---------------------------------------------|

Riff A
e|--------------------------------------------------------|
B|--------------------------------------------------------|
G|-3---3---3---5---5---5---2---2---2---0---0---0----------|
D|---5---5---5---7---7---7---3---3---3---1---1---1--------|
A|--------------------------------------------------------|
E|--------------------------------------------------------|

Riff B
e|6--|8--|5-|10-|10-|12-|9--|14-|
B|8--|10-|6-|11-|11-|13-|10-|15-|
G|---|---|--|---|---|---|---|---|
D|---|---|--|---|---|---|---|---|
A|---|---|--|---|---|---|---|---|
E|---|---|--|---|---|---|---|---|

Riff C
e|------------------------------------------|
B|------------------------------------------|
G|------------------------------------------|
D|-5555/4444/7777/10101010------------------|
A|------------------------------------------|
E|-3333/2222/5555/8-8-8-8-------------------|


G5                                             F#5
Wake up (Wake up) Grab a brush and put a little make-up
      
F#5                             G5
Hide the scars to fade away the shakeup
                                       (hide to fade away the shakeup)
G5                                F#5
Why`d you leave the keys upon the table?
F#5                        G5
Here you go create another fable - You wanted to! 
G5                            F#5
Grab a brush and put a little makeup - You wanted to!
F#5                             G5
Hide the scars to fade away the shakeup - You wanted to!
G5                                F#5
Why`d you leave the keys upon the table? - You wanted to!

e|--------------------------------------------------------|
B|--------------------------------------------------------|
G|-3---3---3---5---5---5---2---2---2---0---0---0----------|
D|---5---5---5---7---7---7---3---3---3---1---1---1--------|
A|--------------------------------------------------------|
E|--------------------------------------------------------|
                  
I don`t think you trust in, my, self righteous :
suicide I, cry, when angels deserve to         :  RIFF A e RIFF B
DIE  Whraaaaaaaaaaaaaaaghhhhh!                 :

[Repetir Verso1] 

I don`t think you trust in, my, self righteous :                  
suicide I, cry, when angels deserve to         :   
die in my, self righteous                      :   RIFF A e RIFF B
suicide, I cry, when angels deserve to die     :

RIFF C 2X

Father, father                                 :
Father, father                                 :  RIFF2
Father into your hands, I commend my spirit    :
Father into your hands, why have you           : 


   G5        D#5             A#5       D#5 
forsaken me  In your eyes forsaken me  In your thoughts
   G5        D#5              A#5    D#5       
forsaken me  In your heart forsaken, ME oh
 G5   D#5 A#5 D#5    
Trus in  my  self righteous
    G5   D#5 A#5  D#5                   
suicide I   cry  when angels deserve to
G5  D#5 A#5 D#5
die in, my, self righteous
    G5   D#5   A#5    D#5           
suicide why,  cry,   when angels deserve to
G5 
die
dudas o consejos [email protected]
 


Que te parecio? Calificalo con estrellas!!

Rating: 8.6/10 (1685 votos)

Este fichero es trabajo propio de su transcriptor y representa su interpretación personal de la canción. El material contenido en esta página es para exclusivo uso privado, por lo que se prohibe su reproducción o retransmisión, así como su uso para fines comerciales.


Comentario de tomas
dudas o consejos [email protected]
Deja tus comentarios:

Letras de System of a down
Letras de canciones | Musica Independiente