Acordes y tablaturas para guitarra

Acordes y Tablaturas
Usuario: Password:

Buscar:
Acordes y Tablaturas >> Letra G >> Acordes de Guns N´ Roses >> Sweet Child O`Mine
Tablatura de Sweet Child O`Mine, Guns N´ Roses

Sweet Child O`Mine

Guns N´ Roses






Intro
|----------3---1--------------3---1--------------3---1---|e
|---3------------------3------------------3--------------|B
|-----2-0----2---2-------2-0----2---2-------2-0----2---2-|G
|-0------------------0------------------2----------------|D
|--------------------------------------------------------|A
|--------------------------------------------------------|E

|-----------3---1--------------3---1---------------3---1---------------3---1----|e
|---3------------------3-------------------3-------------------3----------------|B
|-0---2-0-----2---2--0---2-0-----2---2-------2-0-----2---2-------2-0-----2----2-|G
|----------------------------------------0-------------------0------------------|D
|-------------------------------------------------------------------------------|A
|-------------------------------------------------------------------------------|E

|-------------------------------------------------------------------------------|e
|-3--(3)---1--(1)--0--(0)-------------------------------------------------------|B
|-2--(2)---0--(0)--0--(0)--2--2--2--2-(2)--2--2-(2)-----------------------------|G
|-2--(2)---2--(2)--0--(0)--0--3--0--0-(0)--0--0-(0)--2--2-(2)--2--2-(2)-0--0-(0)|D
|-0--(0)---3--(3)--2--(2)--0--0--0--0-(0)--0--0-(0)--3--3-(3)--3--3-(3)-2--2-(2)|A
|-----------------------------0----------------------3--3-(3)--3--3-(3)-2--2-(2)|E

|-----------------------|e
|-----------------------|B
|-----------------------|G
|-0--0-(0)--3--3-(3)--3-|D
|-2--2-(2)--2--2-(2)--2-|A
|-2--2-(2)--2--2-(2)--3-|E

Verse 1
She`s got a smile that it seems to me reminds me of childhood memories
|------------------------------------------------------------------|e
|------------------------------------------------------------------|B
|-2-2-2-2-(2)--0----0--2----------0--(0)-----0-(0)-------0---------|G
|-3--------------3--0----3-(2)--0----(2)-3-0-2-(2)-3-------3-2-(0)-|D
|-3----------------------------------(3)--------------3------------|A
|------------------------------------------------------------------|E

Where everything was as fresh as the bright blue sky_________
|--------------------------------------------------------------------------|e
|--------------------------------------------------------------------------|B
|---0--(0)------0--(0)-----0--(0)------0-(0)--0--0-(0)----------0----------|G
|-0-----x---3-0--------3-0-----x---3-0----x------0-(0)--3-(3)---0-3--3-(3)-|D
|-------2----------------------2----------2------0-(0)----------0----2-(2)-|A
|--------------------------------------------------------------------2-(2)-|E

Now and then when I see her face__she takes me away to that special place
|------------------------------------------------------------------|e
|------------------------------------------------------------------|B
|-0--2--2-(2)--0----0--2---------2--0-----0--(0)-------0--2--0-(0)-|G
|-0--------------3--0-----3-(3)-----2-----2--(2)-3--0--2-----2-(2)-|D
|-0---------------------------------3-3-0--------------3-----3-(3)-|A
|------------------------------------------------------------------|E

and if I stared too long I`ll probably break down and cry__________
|---------------------------------------------------------------|e
|---------------------------------------------------------------|B
|---0----0---0----0-----0-0--0--0-2--0-(0)----------0---0-3-(3)-|G
|-3---3--x-3---3-----0--x-------x----0-(0)--3-(3)---0-3---2-(2)-|D
|--------2--------------2-------2----0-(0)----------0-----2-(2)-|A
|---------------------------------------------------------------|E

Chorus
Whoa Whoa Whoa Sweet child o mine_____
|----------------------------------------------------|e
|----0-----------------------------------------------|B
|-2----2--2-0--0--0--0-0--(0)-----------0------------|G
|-2-------2----2--2----0--(0)-3--3------2--3-2-3-(3)-|D
|-3-------3----3--3----0--(0)----3--0--(3)-----------|A
|--------------------------------2-------------------|E

Whoa oh oh oh sweet love o` mine____ (Followed By Instrumental Part)
|-------------------------------------------------------------------------------|e
|--------------------------------------0----------------------------------------|B
|-2--0-(0)-----0--(0)------------------2---2-0---------2--0---------2--0-------2|G
|-2--2-(2)--3--2--(2)-3--0--2--0-(0)---0-----0--3-(3)-----0--3-(3)-----x--2-(2)-|D
|-3--3-(3)-----3--(3)-------3--3-(3)-----------------------------------3--------|A
|-------------------------------------------------------------------------------|E

Still Instrumental
|-------------------------------0-(0)-----------------------|e
|-------------------0------0--3--------3--------------------|B
|-0---------2--0--0---2-0--0-----------------------0--3-(3)-|G
|-x--2-(2)-----x-------------------------3-(3)-----0--3-(3)-|D
|-3------------2-------------------------0-(0)--0--0--2-(2)-|A
|-----------------------------------------------------------|E


Repeat to start for 2nd Verses - Repeat chorus, but at end add next line

Instrumental (2nd Verse ONLY)
|--------------------------------------------|e
|----------------------------------3---------|B
|-0--(0)--2--0--0-----0--(0)--(0)----0-------|G
|-x----------x----3-0-----0----0-------3-(3)-|D
|-2----------2-------------------------0-(0)-|A
|--------------------------------------------|E

After this line repeat chorus again, this time excluding both instrumental parts

Sm. Inst.  Oh, oh oh oh, sweet child of mine Woo Yeah Yeah!
|--------------0--(0)-----------------------------------------------|e
|----1-(1)--3---------3--3--3-0---0--(0)-3-0---------0------------0-|B
|-2-----------------------------2------------2-(2)-----2---2-(2)----|G
|--------------------------------------------------------3----------|D
|-------------------------------------------------------------------|A
|-------------------------------------------------------------------|E

Oooh,_________Sweet love o` mine
|-----------------------------------------------|e
|-0---------------------------------------------|B
|----2-(2)--0----0--(0)-------------------------|G
|--------------3--------3--0--2--3-3--2--0--(0)-|D
|-------------------------------------0---------|A
|-----------------------------------------------|E

Guitar solo (3-4 Lines)

Where do we go?  Where do we go now? Where do we go? (Blue part 2x) where do we...
|-------------------------------------------------------------------------0---|e
|------------------------------------------------------------0-0-3-0-(0)----3-|B
|-----------------------------------------------------------------------------|G
|-2-0-----------2-0-------------2-0------------2-2-2--3--0--------------------|D
|-----2-0-(0)-------2-0-(0)---------2-0-(0)----2-2-2--3--2--------------------|A
|---------------------------3------------------3-3-3--3--2--------------------|E

Where do we go now? instr.blue)Where do we go?(Play all blue 4x - inc. line above)
|-0------------------------------------------------|e
|---3-0------------------------------0-----0-----0-|B
|-------2-(2)--0----0-0-0-0------------2-0----2----|G
|-------------------2-2-2-2--3--0------------------|D
|----------------------------0--2------------------|A
|--------------------------------------------------|E

Ah_______Where do we go now? no no no no no no no Sweet Child,___
|-------------0------------0--------------------------------|e
|-0--3-0--0-0---0-------------3--0--0-----------0-----------|B
|------------------(2)-0---------------2--0--------2-0------|G
|--------------------------------------------2----------(2)-|D
|-----------------------------------------------------------|A
|-----------------------------------------------------------|E

Sweet Child______________o` mine.________________
|-----------------------------------------0------------------------------------|e
|-0---0---0--0-3-0-3--0---0------0-3-0-3----3-0---0----------------------------|B
|---2---2---------------2---2-0-----------------2----2-0-----------------------|G
|---------------------------------------------------------2--(2)--(2)--0-(0)-2-|D
|------------------------------------------------------------------------------|A
|------------------------------------------------------------------------------|E

Instrumental/Outro
|-------------|e
|-------------|B
|-------0-(0)-|G
|-----2-------|D
|---2---------|A


Que te parecio? Calificalo con estrellas!!

Rating: 6.4/10 (782 votos)

Este fichero es trabajo propio de su transcriptor y representa su interpretación personal de la canción. El material contenido en esta página es para exclusivo uso privado, por lo que se prohibe su reproducción o retransmisión, así como su uso para fines comerciales.


Comentario de Daniel
Les paso la mejor cancion de guns
Deja tus comentarios:

Letras de Guns N´ Roses
Letras de canciones | Musica Independiente