Acordes y tablaturas para guitarra

Acordes y Tablaturas
Usuario: Password:

Buscar:
Acordes y Tablaturas >> Letra A >> Acordes de Alex ubago >> Sin miedo a nada
Bajo de Sin miedo a nada, Alex ubago

Sin miedo a nada

Alex ubago






Versos:

||-----------------------------||
||-----------------------------||
||--------5-5-5-5-------3-3-3-3||
||-5-5-5-5-------3-3-3-3-------||

|----------------------------------|
|----------------------------------|
|------------3-3-3-3-----------5-5-|
|-0-0-1-1-3-3-------5-5-5-5-1-1----|


------------------------------------------------------

Coro:

|||||-------------------------------|||||
|||||-------------------------------|||||
|||||----------------3-3-3-3--------|||||
|||||-1-1-1-1-3-3-3-3-------0-0-0-0-|||||

|-----------------------------------------------|
|-----------------------------------------------|
|----------------3-3-3-3------------------------|
|-1-1-1-1-3-3-3-3-------5-5-5-5-1-1-1-1-5-5-5-5-|

-------------------------------------------------------

     LETRA:

Me muero por suplicarte, que no te vayas mi vida
Me muero por escucharte, decir las cosas que nunca digas
Mas me callo y te marchas, mantengo la esperanza
De ser capaz algun dia, de no esconder las heridas        
Que me duelen al pensar, que te voy queriendo cada dia un poco mas
Cuanto tiempo vamos a esperar

Me muero por abrazarte, y que me abraces tan fuerte
Me muero por divertirte, y que me bese cuando despierte
Acomodado en tu pecho, hasta que el sol aparezca
Me voy perdiendo en tu aroma, me voy perdiendo en tus labios
Que se acercan susurrando palabras que llegan a este pobre corazon
Voy sintiendo el fuego en mi interior


Me muero por conocerte, saber que es lo que piensas
Abrir todas tus puertas y vencer esas tormentas
Que nos quieran abatir, centrar en tus ojos mi mirada
Cantar contigo al alba, besarnos hasta desgastarnos
Nuestros labios, y ver en tu rostro cada dia
Crecer esa semilla, crear, soñar, dejar todo surgir,
Aparcando el miedo a sufrir

Me muero por explicarte, lo que pasa por mi mente
Me muero por intrigarte, y seguir siendo capaz de sorprenderte
Sentir cada dia ese flechazo al verte
Que mas dara lo que digan, que mas dara lo que piensen si estoy loca
Es cosa mia, y ahora vuelvo a mirar el mundo a mi favor
Vuelvo a ver brillar la luz del sol



CORO:...

Me muero por conocerte.......




        ESTA ES MI INTERPRETACION DE LA CANCION...
       ...Y ESPERO K LES HAYA SERVIDO....
       ...ESPERO NUNCA TENER K DECIR 

   ...ME MUERO POR SUPLICARTE K NO TE VAYAS
    DE MI VIDA.....POR K SIN ELLA YA NADA SERIA 
    LO MISMO....

             BY VICTOR   ;)

Fuente original: LaCuerda
Colaborador original: VICTOR SOTO [[email protected]]

Que te parecio? Calificalo con estrellas!!

Rating: 2.7/10 (36 votos)

Este fichero es trabajo propio de su transcriptor y representa su interpretación personal de la canción. El material contenido en esta página es para exclusivo uso privado, por lo que se prohibe su reproducción o retransmisión, así como su uso para fines comerciales.


Deja tus comentarios:

Letras de Alex ubago
Letras de canciones | Musica Independiente