Acordes y tablaturas para guitarra

Acordes y Tablaturas
Usuario: Password:

Buscar:
Acordes y Tablaturas >> Letra G >> Acordes de Guasones >> Reyes de la noche
Acordes de Reyes de la noche, Guasones

Reyes de la noche

Guasones






a.asus4.bm.e.mi5.
     A   Asus4
e|--0-0---------|----|
B|--2-2---3-3---|----|
G|--2-2---2-2---|-x2-|
D|--2-2---0-0---|----|
A|--0-0---0-0---|----|
E|--------------|----|
-------------------------------------------------------------------------------------
     A-Asus4 x4
e|-----------------|------------------|---------------------------------------------|
B|--3333-2------5v-|-3333-2----2/7-5v-|-3333--2-----5v-3v-2v-----2-2h3h2------------|
G|---------4--2----|-------4-2--------|---------4-2-----------2-4--------4-2-4--2v|
D|-----------------|------------------|---------------------------------------------|
A|-----------------|------------------|---------------------------------------------|
E|-----------------|------------------|---------------------------------------------|

-------------------------------------------------------------------------------------
A                  Asus4
Fuimos mucho mas que nada,
A          Asus4
Fuimos la mentira
A          Asus4 riff 1
Fuimos lo peor,
A          Asus4
Fuimos los soldados a la madrugada
A          Asus4riff 2
Por esa ambicion

        Riff 1                   Riff 2
e|-----------------------|---------------------|
B|--------------5--------|---------------------|
G|-2/4-2-4b-4br--4-2-----|----7-7-7-7-5-5-4-7--|
D|-------------------4-2-|-/7-7-7-7-7-5-5-4-7--|
A|-----------------------|---------------------|
E|-----------------------|---------------------|

-------------------------------------------------------------------------------------

Bm
Y ahora estoy en libertad,
E
Y ahora que puedo pensar en no volver
Bm                   E
a ser ese mismo de antes


-------------------------------------------------------------------------------------

A-Asus4
Y que tristeza hay en la ciudad amor
A-Asus4
Sabado soleado
A-Asus4
Y en el centro de la estatua del dolor
             Bm/E
Me senti parado
             E
Me senti parado

         Bm/E
e|------2----------|
B|------3----------|
G|------4----------|
D|------4----------|
A|------2---0-2-2v-|
E|-0---------------|

-------------------------------------------------------------------------------------
       (A-Asus4) x2
e|-----------------|------------------|
B|--3333-2------5v-|-3333-2----2/7-5v-|
G|---------4--2----|-------4-2--------|
D|-----------------|------------------|
A|-----------------|------------------|
E|-----------------|------------------|

-------------------------------------------------------------------------------------
A                  Asus4
Fuimos mucho mas que dos reyes de la noche
A           Asus4 riff 1
De esta tempestad.
A           Asus4
Si te vendi, si te robe, te traicione,
A           Asus4riff 2
Fue por uno mas

-------------------------------------------------------------------------------------
Bm
Y ahora estoy en libertad,
E
Y ahora que puedo pensar en no volver
Bm                    E
a ser ese mismo de antes

-------------------------------------------------------------------------------------
A-Asus4
Y que tristeza hay en la ciudad amor
A-Asus4
Sabado soleado
A-Asus4
Y en el centro de la estatua del dolor
             Bm/E
Me senti parado
             E
Me senti parado

-------------------------------------------------------------------------------------
PUNTEO
-------------------------------------------------------------------------------------
Bm                  E
Fuimos perros de la noche
Bm            E
Oxidados en tristeza

-------------------------------------------------------------------------------------
A-Asus4
Y que tristeza hay en la ciudad amor
A-Asus4
Sabado soleado
A-Asus4
Y en el centro de la estatua del dolor
             Bm/E
Me senti parado
             E
Me senti parado


-------------------------------------------------------------------------------------
 Asus4          Mi5
Y querer lo que querer
A               Asus4
Sin tener que lastimar,
 Asus4          Mi5
Recordando que tu amor
A            Asus4
Se robo mi dignidad
 Asus4          Mi5
Ahora olvidemosnos los dos
A             Asus4
No volvamos a empezar
Bm/E              E
¿para que? ¿Para queeee?
A
    Asus4        Mi5         A           Asus4
e|------------------------------------------------|
B|-3-3-3-3-3---------------2-2-2-2-2--3-3-3-3-3---|
G|-2-2-2-2-2--9-9-9-9-9-9--2-2-2-2-2--2-2-2-2-2---|
D|-2-2-2-2-2--9-9-9-9-9-9--2-2-2-2-2--2-2-2-2-2---|
A|-0-0-0-0-0--7-7-7-7-7-7--0-0-0-0-0--0-0-0-0-0---|
E|------------------------------------------------|
 




puse esta canciom, xq vi q no habia d los guasones!!

AGUANTE EL ROCK NACIOnALL

Que te parecio? Calificalo con estrellas!!

Rating: 7.8/10 (275 votos)

Este fichero es trabajo propio de su transcriptor y representa su interpretación personal de la canción. El material contenido en esta página es para exclusivo uso privado, por lo que se prohibe su reproducción o retransmisión, así como su uso para fines comerciales.


Comentario de Luciano
puse esta canciom, xq vi q no habia d los guasones!! AGUANTE EL ROCK NACIOnALL
Deja tus comentarios:

Letras de Guasones
Letras de canciones | Musica Independiente