Acordes y tablaturas para guitarra

Acordes y Tablaturas
Usuario: Password:

Buscar:
Acordes y Tablaturas >> Letra G >> Acordes de Guns N´ Roses >> knocking´ on heaven´s door
Tablatura de knocking´ on heaven´s door, Guns N´ Roses

Knocking´ on heaven´s door

Guns N´ Roses






Introduccion:

   G         D               C        
e|-3-3-------------2-0---------------------0---------------------|
B|-3---3---------3-----3---3---------1-------1---1---------------|
G|-0-----0-----2---------2---0---------0-------0---0-------------|
D|-0-------0-0---------------0h2---2-----2-----------0h2p0---0---|
A|-2-----------------------------3-------------------------3-----|
E|-3-------------------------------------------------------------|
   G         D             C
e|---3-------------2-0-----------------0-----------------|
B|-----3---------3-----3---------1-----------------------|
G|-0-----0-----2---------2-0-------0-----0---0-----------|
D|-0-------0-0-------------0h2-------2-----2---0h2p0---0-|
A|-2---------------------------3---------------------3---|
E|-3-----------------------------------------------------|

     G       D       C
G|---4---|---7---|---5---|---5---|
D|---5---|---7---|---5---|---5---|
A|---5---|---5---|---3---|---3---|
E|---3---|-------|-------|-------|

  este riff se toca dos veces
--------------------------------------------------------------------

 Los riff ejecutados sobre toda la cancion son dificiles de determinar. Por eso se da este como ejemplo

e|-3----------2-------2-0-----|---------0-------0-------------------|
B|-3---3--3---3-------3-----0-|-----0h1---1-----------1-------------|
G|-0---0-0----2-----2-----2---|---2---------2-------2---2-----0---0-|
D|-0---0-0----0-----0---------|-2-------------2---2-------0h2---2---|
A|-2--------------------------|-------------------------------------|
E|-3--------------------------|-------------------------------------|
 

--------------------------------------------------------------------
  
G          D               Am
Mamma take this badge from me
G          D         C
I can`t use it anymore
G                 D             Am
It`s getting dark, too dark to see
G              D                       C 
Feels like I`m knockin` on heaven`s door  

     G       D       C
G|---4---|---7---|---5---|---5---|
D|---5---|---7---|---5---|---5---|
A|---5---|---5---|---3---|---3---|
E|---3---|-------|-------|-------|
Este riff es repetido durante todo el refran

G             D                     C 
Knock, knock, knockin` on heavenvs door,Hey, hey, hey, hey, yeah
G             D                     C 
Knock, knock, knockin` on heaven`s door
G                  D                     C
Ooh, knock, knock, knockin` on heaven`s door, Ooh yeah
G             D                     C 
Knock, knock, knockin` on heaven`s door, Hey, hey, hey, hey, yeah     

Solo 1:
e-------------------------------------------------------------
b---------------15-------------------15^^-15---13p12-13^^-13--
g--12-14^-12-14----14^-12-12~------12-------------------------
d-----------------------------13/14---------------------------
a-------------------------------------------------------------
E|-------------------------------------------------------------

e----------------------15-------------15-17^-17^--17^-15------
b--13p12-13-12----12-13---13-12---/17-------------------------
g-------------------------------------------------------------
d--------------14---------------------------------------------
a-------------------------------------------------------------
E|-------------------------------------------------------------

e--20^^-20p19-20-19-20^^-20p19-20-19--------------------15----
b------------------------------------17--15^~~----------------
g---------------------------------------------14^~~-12~~------
d-------------------------------------------------------------
a-------------------------------------------------------------
E|-------------------------------------------------------------

G         D                  Am
Mama, put my guns in the ground
G       D                C
I can`t shoot them anymore
G               D                 Am
That cold black cloud is comin` down
G              D                       C
Feels like I`m knockin` on heaven`s door

G             D                     C 
Knock, knock, knockin` on heaven`s door,Hey, hey, hey, hey, yeah
G             D                     C 
Knock, knock, knockin` on heaven`s door
G                  D                     C
Ooh, knock, knock, knockin` on heaven`s door, Ooh yeahhh....

Solo 2:
e--15^-14-14p15-14-12p14----15---15---------------------17/19-
b------------------------15^--15^--15^-13/12------15/17-------
g-------------------------------------------14-12-------------
d-------------------------------------------------------------
a-------------------------------------------------------------
E|-------------------------------------------------------------

e--23-22-23-24^-23-22-23-24^-23-22-23-24^-23/22----------
b-----------------------------------------------19/17-15-
g--------------------------------------------------------
d--------------------------------------------------------
a--------------------------------------------------------
E|--------------------------------------------------------

e------------------------------------------
b------------------------------------------
g--14/16-----------------------------------
d--------17-16-16p17-16/14-----------------
a-------------------------15/17-15---------
E|----------------------------------19-15---


G:Sol: 320033  D:Re: xx0232  C:Do: x32010   Am:Lam: x02210


Que te parecio? Calificalo con estrellas!!

Rating: 8.6/10 (1291 votos)

Este fichero es trabajo propio de su transcriptor y representa su interpretación personal de la canción. El material contenido en esta página es para exclusivo uso privado, por lo que se prohibe su reproducción o retransmisión, así como su uso para fines comerciales.


Comentario de marcelo acuña
este tema es muy bueno, pero a la vez dificil de tocar. Espero que les guste. Marce
Deja tus comentarios:

Letras de Guns N´ Roses
Letras de canciones | Musica Independiente