Acordes y tablaturas para guitarra

Acordes y Tablaturas
Usuario: Password:

Buscar:
Acordes y Tablaturas >> Letra I >> Acordes de Intoxicados >> Fuego
Tablatura de Fuego, Intoxicados

Fuego

Intoxicados






Intro:la primer guitarra hace los siguientes acordes:
D A G A

la segunda guitarra hace este punteo:

p=pull of
h=hamer on
/=slide arrastre

e|--------------|-------------|
B|--------------|-------------|
G|-7--7p5--5p3--|-7/5/3/5/3(*)|
D|--------------|-------------|
A|--------------|-------------|
E|--------------|-------------|

(*) esta parte apenas se escucha 
    y solo sale con guitarra electrica

e|--10/9---9/7---7/5| |---------------------
B|------------------| |-7/8---7/8---7/8---10
G|------------------|x|-9/10--9/10--9/10--12
D|--12/11--11/9--9/7|3|---------------------
A|------------------| |---------------------
E|------------------| |---------------------

e|--10/9---9/7---7/5| |---------------------------------
B|------------------| |-7/8---7/8---10--7/8(*)---7--5--3
G|------------------|x|---------------------------------
D|--12/11--11/9--9/7|2|---------------------------------
A|------------------| |-9/10--9/10--12--9/10(*)--9--7--5
E|------------------| |---------------------------------

  (*) esto kiere decir q se deja sonar la nota

D           A
esta vez es encerio
G
no estoy mintiendo
A
algo se prende fuego
D           A
se que mucha veces dije 
G
que el lobo venia pero esta vez 
A
el lobo esta aca
D
se prende fuego
A
mi pelo mi piano
G
mis discos
A
la ropa y el perro
D
puede ser que otra vez
A
no sea cierto pero
G
siento como el fuego
Em
me quema por dentro

e|-10/9----9/7--7/5--5/10-| |--------------------------
B|------------------------| |-7/8--7/8--10---7/8--7-5--
G|------------------------|x|--------------------------
D|-12/11--11/9--9/7--7/12-|2|--------------------------
A|------------------------| |-9/10-9/10-12---9/11-9-7--
E|------------------------| |--------------------------

e|-10/9----9/7--7/5--5/10-| |----------------------------
B|------------------------| |--7/8--7/8--10---8---7--5--3
G|------------------------|x|----------------------------
D|-12/11--11/9--9/7--7/12-|2|----------------------------
A|------------------------| |--9/10-9/10-12---10--9--7--5
E|------------------------| |----------------------------

D           A
esta vez es encerio
G
no estoy mintiendo
A
algo se prende fuego
D           A
se que mucha veces dije 
G
que el lobo venia pero esta vez 
A
el lobo esta aca
D
se prende fuego
A
mi pelo mi piano
G
mis discos
A
la ropa y el perro
D
puede ser que otra vez
A
no sea cierto pero
G
siento como el fuego
Em
me quema por dentro

Solo:

e|--------------
B|--------------
G|-7--7p5--5p3--
D|--------------
A|--------------
E|--------------

e|------------------------------------------------------------------
B|------------------------------------------------------------------
G|--------------7~--------------7~--------7-9^-7--------------------
D|----------7---------------7---------9-----------7-7h9s7-7h9s7-----
A|-7--7h9-----9----7--7h9-----9-------------------------------------
E|------------------------------------------------------------------

Bm                E7m
dame un balde de agua
     G
o de arena
A
pásame el matafuegos

F#m
el incendio esta cerca 
G
y no voy a quemarme
A
sin antes pelear
D
se prende fuego
A
mi pelo mi piano
G
mis discos
A
la ropa y el perro
D
puede ser que otra vez
A
no sea cierto pero
G
siento como el fuego
Em
me quema por dentro

D     A
Fuego Fuego
G     A
Fuego Fuego
D       A
Estamos Enfermos
G     A
Fuego Fuego
D       A
Estamos Enfermos
G       A
Perdonennos Perdonenos


Que te parecio? Calificalo con estrellas!!

Rating: 7.1/10 (403 votos)

Este fichero es trabajo propio de su transcriptor y representa su interpretación personal de la canción. El material contenido en esta página es para exclusivo uso privado, por lo que se prohibe su reproducción o retransmisión, así como su uso para fines comerciales.


Comentario de Lisandro
ahi tienen para todos saludos para todos los vagos de la normal H2Ont lo vago dl 9
Deja tus comentarios:

Letras de Intoxicados
Letras de canciones | Musica Independiente