Acordes y tablaturas para guitarra

Acordes y Tablaturas
Usuario: Password:

Buscar:
Acordes y Tablaturas >> Letra G >> Acordes de Guns N´ Roses >> Sweet Child O´ Mine
Tablatura de Sweet Child O´ Mine, Guns N´ Roses

Sweet Child O´ Mine

Guns N´ Roses






Sweet Child O` Mine 
Guns N` Roses




Appetite for destruction


 Intro: (Gtr. 1) Riff A
|-----------------15---------14-------|
|-----15------------------------------|
|---------14--12------14-----------14-|
|%-12--------------------------------%|
|-------------------------------------|
|-------------------------------------|

|------------------15--------14-------|
|------15-----------------------------|
|---------14--12--------14---------14-|
|%-14--------------------------------%|
|-------------------------------------|
|-------------------------------------|
_______________________________________
end of Riff A

|----------------------15----------14--------|
|---------15---------------------------------|
|-----12-------14--12--------14-----------14-|
|%------------------------------------------%|
|--------------------------------------------|
|--------------------------------------------|

|---------------------15-------14------|
|-------15-----------------------------|
|-----------14--12--------14--------14-|
|%-12---------------------------------%|
|--------------------------------------|
|--------------------------------------|

 Gtr. 3 (acous. gtr.) Rhy.Fig.1 w/Riff A   
  D                                                      Cadd9 
|-2-------2----------------2-|-3p2--2--3-----2---------|-0--------0------
|-3-------3----------------3-|-3-------3---------3-----|-1--3-----1------
|-2-------2----------------2-|-2-------2---------2---2-|-0--------0------
|-0-------0----------------0-|-0---------------------0-|-2--------2------
|----------------------------|-------------------------|-3--------3------
|----------------------------|-------------------------|-----------------

                                  G 
-----|--------------------------|------------------------|-------------------
-----|-3---1-----------1--------|-3---------0------------|--3-----3--3--3--3-
-----|-0---------0------------0-|-0------0--0------------|--2-----2--2--2--2-
-----|-2------------------------|-0---------0------------|--0-----0--0--0--0-
-----|-3------------------------|-2---------2------------|-------------------
-----|--------------------------|-3---------3------------|-------------------

          D       end of Rhy.Rig.1     
-------|--3--2--0--2------------0-|
-3--3--|--3--3--3--3------------3-|
-2--2--|--2--2--2--2------------2-|
-0--0--|--0--0--0--0------------0-|
-------|--------------------------|
-------|--------------------------|

w/Riff A (1st 6 bars only)&Rhy.Fig.1
Guitar 3(acoustic)
                                                 C  
|------2-----2--2-----2-|--2-----2--3--2--0----|-0------0---0-|--0-----0--3--2--
|------3-----3--3-----3-|--3-------------------|-1------1---1-|--1--------------
|------2-----2--2-----2-|--2-------------------|-0------0---0-|--0--------------
|------0-----0--0-----0-|--0-------------------|-2------2---2-|--2--------------
|-----------------------|----------------------|-3------3---3-|--3--------------
|-----------------------|----------------------|--------------|-----------------
       w/Fill 1
           G                                                      D         
--0--|------------------------------------|------------3--2--0-|--2----------2-
-----|-----3------------3--3------------3-|--3------3----------|--3----------3-
-----|-----0------------0--0------------0-|--0-----------------|--2----------2-
-----|-----0------------0--0------------0-|--0-----------------|--0----------0-
-----|-----2------------2--2------------2-|--2-----------------|---------------
-----|-----3------------3--3------------3-|--3-----------------|---------------

                                       Dsus4   D 
----------2--2---------2-|--2--------2--3------2--|
----------3--3---------3-|--3--------3--3------3--|
----------2--2---------2-|--2--------2--2------2--|
----------0--0---------0-|--0--------0--0------0--|
-------------------------|------------------------|
-------------------------|------------------------|

  D                                              C 
--10--------------------|--10-----------------|--8------------------|--10p8--
--10--------------------|--10-----------------|--8------------------|--------
--11--------------------|--11-----------------|--9------------------|--------
--12--------------------|--12-----------------|--10-----------------|--------
------------------------|---------------------|---------------------|--------
------------------------|---------------------|---------------------|--------

                     G
---------------|-----3--------------------|--3--------3-------------|
-----8-----8--|-----3--------------------|----3------------3-------|
---------------|-----0--------------------|-------0---------------0-|
---------------|-----5--------------------|-------------------------|
---------------|--------------------------|-------------------------|
---------------|--------------------------|-------------------------|

  D
|--2------------------2-|--3p2----------------|
|--3------------------3-|--3------------------|
|--2------------------2-|--2------------------|
|--0------------------0-|--0------------------|
|-----------------------|---------------------|
|-----------------------|---------------------|

Fill 1
________________________________________________________________________________
|--12----------------12---------14------|--15------14-------12-------------|-14|
|-----------15--------------------------|---------------------------15-----|-15|
|------14-------14---------14--------14-|-------14------14-------14-----14-|-14|
|---------------------------------------|----------------------------------|---|
|---------------------------------------|----------------------------------|---|
|---------------------------------------|----------------------------------|---|
________________________________________________________________________________
w/Rhy.Fig.1(1st and the 7th bars only)
                                                              Cadd9
|-----------------0--------------2-|-----------2--3--2--0---|-------------------
|----------3------------3----------|--3-------------------3-|--------------3----
|------0------2-------------2------|-----2------------------|------0-----------0
|----------------------------------|--------0---------------|---------2---------
|----------------------------------|------------------------|--3----------------
|----------------------------------|------------------------|-------------------

----------0-|--0-----------------------------|
------------|-----3-------3------------------|
------------|---------------------0--------0-|
----2-------|--------------------------------|
------------|---------3----------------3-----|
------------|--------------------------------|
       G                                                        D
|--------------------------------|--0----------------0-------|------------------
|------------3---------3---------|-----3-------3--------3----|-----3---------3--
|------2h4-------2h4-----------0-|----------0--------------0-|--------2---------
|--------------------------------|---------------------------|--0--------0------
|--------------------------------|---------------------------|------------------
|--------------------------------|---------------------------|------------------
   (Gtr2)   Dsus4 D    Dsus2     D            
---------3-|--3------------------3-|
---------3-|--3---3--------------2-|
--2------2-|--2--------2---------2-|
-----------|---------------------0-|
-----------|-----------------------|
-----------|-----------------------|
Rhy.Fig.2
  A5                          B5    C5
|---------------------------------|------------------12-------10-----|
|--14--14----------15------14-----|--13--13--------------------------|
|----------14----------14------14-|----------12--10-------12------10-|
|--------------14-----------------|----------------------------------|
|---------------------------------|----------------------------------|
|---------------------------------|----------------------------------|
 w/Fill 2 the 3rd time
   D                                 Dsus4  D  Dsus2 D
|-------------------15------14-----|----------------------15------14-----|
|-------15-------------------------|-------15----------------------------|
|-----------14--12------14------14-|------------14---12-------14------14-|
|--12------------------------------|--12---------------------------------|
|----------------------------------|-------------------------------------|
|----------------------------------|-------------------------------------|
Fill 2
________________________________________________________________
|-----------------------------|--------------------------------|
|-----7--------------------7^-|--7-----------------------------|
|-----7-----------------------|----------7---------------------|
|-----7-----------------------|--------------7---5/4---0-------|
|-----5-----------------------|-----------------------------3^-|
|-----------------------------|--------------------------------|
________________________________________________________________
     A5                        B5      C5                              D
|--------------------------------------|-------------------12------10-----|
|-----14---14-----------15------14-----|--13--13--------------------------|
|--------------14-----------14------14-|----------12--10-------12------12-|
|------------------14------------------|----------------------------------|
|--------------------------------------|----------------------------------|
|--------------------------------------|----------------------------------|

|------------------------------|-------------------------------|
|--------15--------------------|--15------------------------10-|
|--/14-------------------------|--14--------------------9------|
|------------------------------|-------------------------------|
|------------------------------|-------------------------------|
|------------------------------|-------------------------------|
w/Rhy.Fig.1
       D                C 
|---------------------|-------------------|--------------------|
|------8----7------10-|--8-----7-------10-|--8--------------10-|
|---------------------|-------------------|--------9-----------|
|---------------------|-------------------|--------------------|
|---------------------|-------------------|--------------------|
|---------------------|-------------------|--------------------|
                      G
|--------------------|--------------------|--------10--10^----------|
|--8---------------10/8----------10^----8-|--10^--------------------|
|--------9-----------|--------------------|----------------------9^-|
|--------------------|--------------------|-------------------------|
|--------------------|--------------------|-------------------------|
|--------------------|--------------------|-------------------------|
                               G                                      D
|--------------|-----------||----------------|------------------------|
|--------------|-----------||--/8----------10/8--------7^---------7^--|
|----9---------|--9--------||----------------|-----------------7------|
|--------------|-----------||----------------|------------------------|
|--------------|-----------||----------------|------------------------|
|--------------|-----------||----------------|------------------------|
                      w/Rhy.Fig.1(1st and  7th Bars only)            C 
|--------------------|-----------------------|---------------10----10/8-|
|--7-----------x--10-|-----8------7-------10-|--8-----7--/10------------|
|--------------------|-----------------------|--------------------------|
|--------------------|-----------------------|--------------------------|
|--------------------|-----------------------|--------------------------|
|--------------------|-----------------------|--------------------------|
                                                  G
|----/12---------12-|--12/10---10--10/8-----7^-|--7-------------------------|
|-------------------|--------------------------|--------8----------10^-10p8-|
|-------------------|--------------------------|-----------7~~~~~-----------|
|-------------------|--------------------------|----------------------------|
|-------------------|--------------------------|----------------------------|
|-------------------|--------------------------|----------------------------|
                             D                      Dsus4  D  Dsus2  D
|-----------10--10^---------|------17--------------|--17--------------------|
|-----10^---------------17^-|--17------------------|--17--------------------|
|---------------------------|----------------------|------------------------|
|---------------------------|----------------------|------------------------|
|---------------------------|----------------------|------------------------|
|---------------------------|----------------------|------------------------|
w/Rhy.Fig.2(1 1/2 times)
  A5                B5  C5                         D
  Oh,       oh,__   oh,_____sweet   child_ o`  mine.__________       Woo,___

yeah,_yeah!  

 A5              B5  C5                          D5                 D#5         
Ooh,____________________ sweet   love    o`  mine._________
Solo:                           C                            B7
|--17~~~~~-15-|-14h15p14---------15--|-14h15p14-----------12---14-
|-------------|----------17~~~~~-----|----------17-16-------------
|-------------|----------------------|----------------------------
|-------------|----------------------|----------------------------
|-------------|----------------------|----------------------------
|-------------|----------------------|----------------------------
                                     w/Rhy.Fig.3(2 times) 
    Am                                 Em                       C
||--------------------------------|--------------------------------|-------
||--15^-----12--------------------|--------------------------13-12-|--(12)-
||--------------14^-----12--11h12-|----------------11--12-14-------|-------
||--------------------------------|----14~~~~-14-------------------|-------
||--------------------------------|--------------------------------|-------
||--------------------------------|--------------------------------|-------

-------------------------------|-----------------------------|---------15^-
----13p12/10~~~~----13^--------|--13-----12--12~~~~~~~~~~12^-|-------------
-------------------------------|-----------------------------|-----14------
-------------------------------|-----------------------------|-------------
-------------------------------|-----------------------------|-------------
-------------------------------|-----------------------------|-------------
  Em                C                          B7           Am   
--------------------------------------------|-------------------|
--7^----------------7^----------------------|-------------------|
------9---9~~~~~~~~-------9---9~~~~--8^-----|--8/11---------11^-|
--------------------------------------------|-------------------|
--------------------------------------------|-------------------|
--------------------------------------------|-------------------|
                                Em                  C                
|----------------------------|------------------------|--------------------|
|----------------------------|------------------------|--------------------|
|-----9----------------------|--9~~~~~~~~~~~~---7h8p7-|---9~~~~~----8^-----|
|---------9^-------7-------9-|------------------------|--------------------|
|----------------------------|------------------------|--------------------|
|----------------------------|------------------------|--------------------|
   B7                              A5
|-------------------------------|--------------------------|
|--8---------/11---------9^-----|--9~~~~~~~~~~~~~~~~~~~~~~-|
|-------------------------------|--------------------------|
|-------------------------------|--------------------------|
|-------------------------------|--------------------------|
|-------------------------------|--------------------------|

|---------|--------------7-8p7--11p7-8-11-12/14-11-12-|-14/15-12-14-15p14-12----
|---------|--7^---7-10^-------------------------------|-------------------------
|---8---9-|-----9-------------------------------------|-------------------------
|---------|-------------------------------------------|-------------------------
|---------|-------------------------------------------|-------------------------
|---------|-------------------------------------------|-------------------------
                                   w/Wah Wah  w/Rhy.Fig4
                                   Em                         E   F#      
----14p11--12h14p12------17-----|--------------------------------------|
-15------------------15-----15^-|--15^-----15^~~~~15^~~~~~15^-15p12----|
--------------------------------|-----------------------------------14-|
--------------------------------|--------------------------------------|
--------------------------------|--------------------------------------|
--------------------------------|--------------------------------------|

   G5                                       A5                   B5 
|----------------------------------------|------------------------|
|--15^-----15^~~~~~~~~~~~~~~~~15^p12-----|--17^-----17^~~~~~--17^-|
|-------------------------------------14-|--------------------17^-|
|----------------------------------------|------------------------|
|----------------------------------------|------------------------|
|----------------------------------------|------------------------|
Rhy.Fll 1
___________________________________________________________________
|-----------------0-----------------|-------------0---------------|
|---------------------1-------------|-----------------1-----------|
|-------------2-----------2-------2-|---------2----------2--------|
|---------2-------------------2-----|------2----------------------|
|-----0-----------------------------|--0--------------------------|
|-----------------------------------|------------------------3--2-|
___________________________________________________________________


   C5                 D5    G5          Em
|-------------15--------------------|----------------------12-----------|
|--17^-------------17^-------17^p15-|--15p17~~~~~~~~~15^--------15---12-|
|-----------------------------------|-----------------------------------|
|-----------------------------------|-----------------------------------|
|-----------------------------------|-----------------------------------|
|-----------------------------------|-----------------------------------|
        G5                           A5                                B5
|---------------------------------|------------------------15------------|
|---------------------------------|------------------------15--------15^-|
|----14^--14p12--14~~~~~-12---14^-|--14--12---14--12---14^---14---12-14^-|
|---------------------------------|--------------------------------------|
|---------------------------------|--------------------------------------|
|---------------------------------|--------------------------------------|
   C5                 D5               G5
|--15----15-------15---------------------------|-------------------------
|--15----15-----------15-----------------------|-------------------------
|----14^---14^-----------14^p12-----14p12-x--x-|--12^--------------------
|-------------------------------14--------x--x-|----------14p12-14--x-x--
|----------------------------------------------|-------------------------
|----------------------------------------------|-------------------------
                G5                                      A5
-------------|---------------------------------------|-----------------------
-------------|---------------------------------------|-----------------------
-12p14h12----|--12^----------------------12h14p12----|--12-12-------14-14p12-
----------14-|---------14p12-14~~~~--x-x----------14-|--------14p12----------
-------------|---------------------------------------|-----------------------
-------------|---------------------------------------|-----------------------
                    B5    C5                   D5       G5  
-----------------------|--12-12------15-15p12--15---14-----12h15p12----|
--12-12-------15-15p12-|--------15p12-------------------15----------15-|
--------14p12----------|-----------------------------------------------|
-----------------------|-----------------------------------------------|
-----------------------|-----------------------------------------------|
-----------------------|-----------------------------------------------|
  Em                                                    G5
|-----12-----------12-----------12----------12-------|-----12----------12-
|-15^----15p12--------15p12-15^----15p12-------15p12-|--15^--15p12--------
|--------------14^----------------------14^----------|-------------14^----
|----------------------------------------------------|--------------------
|----------------------------------------------------|--------------------
|----------------------------------------------------|--------------------
                                       A5
----------12-----------12-------15^-|--15^---
-15p12-15^--15p12----12---15p12-----|--------
------------------14^---------------|--------
------------------------------------|--------
------------------------------------|--------
------------------------------------|--------
                       B5     C5                          D5 
--15~~~~~~~~12h15p12----12-|-------12------------------------------------------
---------------------15----|--15^------15p12------------------15---------------
---------------------------|------------------14^p12-14^---------14---14p12----
---------------------------|------------------------------------------------14-
---------------------------|---------------------------------------------------
---------------------------|---------------------------------------------------
                                                       w/Wah Wah
  G5           E5                                      A5
------------|--------------------|-------------------|--x-x------x--------|
------------|--------------------|-------------------|--x-x------x--------|
--14p12-----|--12////////////2//-|-------------------|--------------------|
---------14-|--------------------|-------------------|------x-x-----------|
------------|--------------------|-------------------|------x-x-----------|
------------|--------------------|-------------------|--------------------|
  C5     D5  G5                              G5 
|------------x-x-|-------------------------|--------------------x-----x--|
|------------x-x-|---------------7---------|--------------------x-----x--|
|---Harm.--------|---7h9~~~~~~~~~----------|--------------------x--7--x--|
|---4--4---------|-------------------------|-----------------------------|
|----------------|-------------------------|-----------------------------|
|----------------|-------------------------|-----------------------------|
 A5                              C5        D5       G5
|-----------------------------|------------------------x------------|
|-----------------------------|------------------------x------------|
|-----------------------------|---------------------------x--x------|
|-----------------------------|---------------------------x--x------|
|-----------------------------|-------------------------------------|
|-----------------------------|-------------------------------------|
      E5                         G5
|-----------------------------------|-----------------------------|
|-----2p0---------------------------|-----------------------------|
|------------------------------x--x-|-----------------------------|
|------------------------------x--x-|--7p5------------------------|
|-----------------------------------|------7p5--------------------|
|-----------------------------------|----------7p5----------------|
 A5                                   C5            D5           G5
|----------------------------------|-------------------------------------|
|----------------------------------|-------------------------------------|
|--------------------------------7-|--7h9p7h9p7h9------------------------|
|----------------------------------|-------------------------------------|
|----------------------------------|-------------------------------------|
|----------------------------------|-------------------------------------|
   E5                           G5
|----------------------------|
|--12----12^-12/-------------|
|--12----12^-12/-------------|
|----------------------------|
|----------------------------|
|----------------------------|
A5                                   C5           D5       G5 (Rhy.Fig.6)
|---------------------------------|--------------------------------22^-|
|--15^-----12---------------------|-------17------------17-----17------|
|-------------14^-------12~~~~----|--/18-----------/18-----------------|
|---------------------------------|------------------------------------|
|---------------------------------|------------------------------------|
|---------------------------------|------------------------------------|
 E5                      E     F#      G5        
|22----------------------22----22-|----22----22----22-----22~~~~~~~~~~---|
|---------------------------------|--------------------------------------|
|---------------------------------|--------------------------------------|
|---------------------------------|--------------------------------------|
|---------------------------------|--------------------------------------|
|---------------------------------|--------------------------------------|
   A5                      B5    C5      D5        G5
|---------17------17^------17^-|--17^----------17p15------------|
|--17--------------------------|----------------------17--17----|
|------------------------------|--------------------------------|
|------------------------------|--------------------------------|
|------------------------------|--------------------------------|
|------------------------------|--------------------------------|
   E5 (w/Rhy.Fig.6)               G5                            
|-----------------------12------|-------------12-----12---------12---------12--
|--17^-----15-------------15p12-|--15p12h14p12--15p12--15p12------15p12--------
|-------------------------------|----------------------------14---------14-----
|-------------------------------|----------------------------------------------
|-------------------------------|----------------------------------------------
|-------------------------------|----------------------------------------------
               A5                                             B5
----------12-|---------12--------12--------12--------12----------|
--15p12------|-15p12-----15p12-----15p12-----15p12-----15p12-----|
-------14----|------14--------14--------14--------14--------14^--|
-------------|---------------------------------------------------|
-------------|---------------------------------------------------|
-------------|---------------------------------------------------|
w/Rhy.Fig.6(1st and 3rd bars only)
    C5        


Que te parecio? Calificalo con estrellas!!

Rating: 8.8/10 (6111 votos)

Este fichero es trabajo propio de su transcriptor y representa su interpretación personal de la canción. El material contenido en esta página es para exclusivo uso privado, por lo que se prohibe su reproducción o retransmisión, así como su uso para fines comerciales.


Deja tus comentarios:

Letras de Guns N´ Roses
Letras de canciones | Musica Independiente