Enviado por: Demency
Agrandar Letra
Reducir Letra
Imprimir






Mago De Oz, Pensando En Ti

|------------------------------------------------------------------------------
|--0--0-0--0--0--0-----------------------13-1-13-13-13-13----------------------
|-----------------3--3--3--3---------------------------------------------------
|------------------------------------------------------------------------------
|----------------------------4--4--4--4--4-------------------------------------
|------------------------------------15--------------15---15-15-15-15----------
coro

|------------------------------------------------------------------------------
|--0--0-0--0--0--0-----------------------13-1-13-13-13-13----------------------
|-----------------3--3--3--3---------------------------------------------------
|------------------------------------------------------------------------------
|----------------------------4--4--4--4--4-------------------------------------
|------------------------------------15--------------15---15-15-15-15----------

vaerso 1

|------------------------------------------------------------------------------
|--0--0-0--0--0--0-----------------------13-1-13-13-13-13----------------------
|-----------------3--3--3--3---------------------------------------------------
|------------------------------------------------------------------------------
|----------------------------4--4--4--4--4-------------------------------------
|------------------------------------15--------------15---15-15-15-15----------

Aviso: Este fichero es trabajo propio de su transcriptor y representa su interpretación personal de la canción. El material contenido en esta página es para exclusivo uso privado, por lo que se prohibe su reproducción o retransmisión, así como su uso para fines comerciales.
comentario del colaborador: Otra vez yo espero les guste y como decend los de mago ¡¡¡¡¡cabrones!!!!!!!!!!!!!!!!!!!!!!!!!!!!!!!!!!!!!!!!!!!!!!!!!!!!!!!!!!!!!!

Califica esta canción


Comentarios en Facebook