Acordes y tablaturas para guitarra

Acordes y Tablaturas
Usuario: Password:

Buscar:
Acordes y Tablaturas >> Letra V >> Acordes de Victor jara >> Te recuerdo amanda
Tablatura de Te recuerdo amanda, Victor jara

Te recuerdo amanda

Victor jara






intro:

  G(b5)
||-7-7-0|-0-0--|-0-0-0|-0-0--|-0-0-0|------|
||--7-5-|--5---|----3-|--5---|----3-|------|
||------|6-----|--4---|6-----|--4---|------|
||5-----|------|5-----|------|5-----|------|
||------|------|------|------|------|------|
||------|------|------|------|------|------|

 |-7-7-0|-0-0--|-0-0-0|-0-0--|-0-0-0|----
 |--7-5-|--5---|----3-|--5---|----3-|----
 |------|6-----|--4---|6-----|--4---|----
 |5-----|------|5-----|------|5-----|----
 |------|------|------|------|------|----
 |------|------|------|------|------|---- Te re-
 

D           3X,6X,F#m
cuerdo Amanda

la calle mojada
    G                  C
corriendo a la fábrica
                   D6
donde trabajaba Manuel


    D           3X,6X,F#m
La sonrisa amplia,
   G                  C
la lluvia en el pelo,

no importaba nada,
                       D6
ibas a encontrarte con él,
                            Bm
con él, con él, con él, con él

            A
Son cinco minutos,
            AMaj7            G6
la vida es eterna en cinco minutos.
           AMaj7 G6
Suena la sirena,
                AMaj7 G6
de vuelta al trabajo,
         F#m
y tu caminando
            G
lo iluminas todo.
            E       G
Los cinco minutos
                  E
te hacen florecer.                Te re-
                 |------|----0-|------|
                 |------|--0---|------|
                 |------|1-----|------|
                 |----2-|------|------|
                 |--2---|------|------|
                 |0-----|------|------|


D           3X,6X,F#m
cuerdo Amanda

la calle mojada
    G                  C
corriendo a la fábrica
                   D6
donde trabajaba Manuel

    D           3X,6X,F#m
La sonrisa amplia,
   G                  C
la lluvia en el pelo,

no importaba nada,
                       D6
ibas a encontrarte con él,
                            Bm
con él, con él, con él, con él

            A
Que partió a la sierra,
            AMaj7                   G6
que nunca hico daño,que partio a la sierra.
           AMaj7 G6
Y en cinco minutos
           AMaj7 G6
quedó destrozado.
          F#m
Suena la sirena,
                G
de vuelta al trabajo.
               E    G
Muchos no volvieron,
               E
tampoco Manuel...
 

final:
  G(b5)
 |-7-7-0|-0-0--|-0-0-0|-0-0--|-0-0-0||
 |--7-5-|--5---|----3-|--5---|----3-||
 |------|6-----|--4---|6-----|--4---||
 |5-----|------|5-----|------|5-----||
 |------|------|------|------|------||
 |------|------|------|------|------||


 AMaj7      G6      D6
   0         0       2
   2         0       3
   1         0       4
   2         2       0
   0         0       0
   0         3       0

Fuente original: LaCuerda
Colaborador original: Víctor R. [[email protected]]

Que te parecio? Calificalo con estrellas!!

Rating: 7.1/10 (103 votos)

Este fichero es trabajo propio de su transcriptor y representa su interpretación personal de la canción. El material contenido en esta página es para exclusivo uso privado, por lo que se prohibe su reproducción o retransmisión, así como su uso para fines comerciales.


Deja tus comentarios:

Letras de Victor jara
Letras de canciones | Musica Independiente