Acordes y tablaturas para guitarra

Acordes y Tablaturas
Usuario: Password:

Buscar:
Acordes y Tablaturas >> Letra V >> Acordes de Victor jara >> El arado
Tablatura de El arado, Victor jara

El arado

Victor jara






El Arado
Victor Jara

  Em
-----------------0--------0--|-----------0--------|-----------0--------|
--------------0-----0--------|-----0--------0-----|-----0--------0-----|
-----------0-----------0-----|--------0--------0--|--------0--------0--|
--------2--------------------|--2-----------------|--------------------|
-----2-----------------------|--------------------|--2-----------------|
--0--------------------------|--------------------|--------------------|
                Aprieto         fir  -   me  mi      ma  no

                                            G
-----------0--------|-----------0--------|--------------------|--------------------|
-----0--------0-----|-----0--------0-----|-----------3--------|-----------3--------|
--------0--------0--|--------0--------0--|--------4-----4-----|--------4-----4-----|
--------------------|--2-----------------|-----5-----------5--|-----5-----------5--|
--------------------|--------------------|--------------------|--5-----------------|
--0-----------------|--------------------|--3-----------------|--------------------|
     y hundo el a  -   ra - do en   la      tie   -  rra                  ha - ce

 D7
-----------2--------|-----------2--------|-----------2--------|---------------|
--------1-----1-----|--------1-----1-----|--------1-----1-----|---------------|
-----2-----------2--|-----2-----------2--|-----2-----------2--|--4----2----0--|
--0-----------------|--0-----------------|--0-----------------|---------------|
--------------------|--------------------|--------------------|---------------|
--------------------|--------------------|--------------------|---------------|
 a - ños       que     lle vo en e lla                           ¿có  -   mo

                                           Em  (rasgueo 1)
----------------|-----------|-----------|---------------------|---------------------|
----------------|-----------|-----------|-------0----0-----0--|-------0----0-----0--|
----------------|-----------|-----------|-----0------0-----0--|-----0------0-----0--|
--4--2--0-------|-----------|-----------|---------------------|---------------------|
-----------3/---|--7/-------|--(2)------|---------------------|---------------------|
----------------|-----------|-----------|--0------0-----0-----|--0------0-----0-----|
  noes tar ago    tao?                     Vue - lan ma ri po - sas        can tan


---------------------|---------------------|---------------------------|
-------0----0-----0--|-------0----0-----0--|-------0----0-----0-----0--|
-----0------0-----0--|-----0------0-----0--|-----0------0-----0-----0--|
---------------------|---------------------|---------------------------|
---------------------|---------------------|---------------------------|
--0------0-----0-----|--0------0-----0-----|--0------0-----0-----0-----|
 gri - llos la piel     se    me pone ne   -    gra        y_el  sol

                        B7/F#
---------------------|-------2----2-----2--|-------2----2-----2--|-------2----2-----2--|
-------0----0-----0--|---------------------|---------------------|---------------------|
-----0------0-----0--|-----2------2-----2--|-----2------2-----2--|-----2------2-----2--|
---------------------|---------------------|---------------------|---------------------|
---------------------|---------------------|---------------------|---------------------|
--0------0-----0-----|--2------2-----2-----|--2------2-----2-----|--2------2-----2-----|
 bri  lla brillay bri  -      lla                          el su -  dor    me hace sur -

                                                                   Em (rasgueo 2)
-------2----2-----2--|-------2----2-----2--|-------2----2-----2--|-----0*-----0-----0--|
---------------------|---------------------|---------------------|-----0*-----0-----0--|
-----2------2-----2--|-----2------2-----2--|-----2------2-----2--|-----0*-----0-----0--|
---------------------|---------------------|---------------------|--2--2*-----2--2--2--|
---------------------|---------------------|---------------------|-----2*--------2-----|
--2------2-----2-----|--2------2-----2-----|--2------2-----2-----|---------0-----0-----|
    cos      yo_hago   sur-  cos a  la tie  -  rra         sin      pa - rar (* rasgueo de dedo
                                                                           índice hacia arriba)

                        Em6                  Em                    Em6
-----0*-----0-----0--|-----0*-----0-----0--|-----0*-----0-----0--|-----0*-----0-----0--|
-----0*-----0-----0--|-----2*-----2-----2--|-----0*-----0-----0--|-----2*-----2-----2--|
-----0*-----0-----0--|-----0*-----0-----0--|-----0*-----0-----0--|-----0*-----0-----0--|
--2--2*-----2--2--2--|--2--2*-----2--2--2--|--2--2*-----2--2--2--|--2--2*-----2--2--2--|
-----2*--------2-----|-----2*--------2-----|-----2*--------2-----|-----2*--------2-----|
---------0-----0-----|---------0-----0-----|---------0-----0-----|---------0-----0-----|
                        Vue  lan  mari po  -    sas     can  tan   gri - llos la piel

  Em                   Em6                   Em                           B7-4/F#
-----0*-----0-----0--|-----0*-----0-----0--|-----0*-----0-----0-----0--|-----0*-----0-----0--|
-----0*-----0-----0--|-----2*-----2-----2--|-----0*-----0-----0-----0--|-----0*-----0-----0--|
-----0*-----0-----0--|-----0*-----0-----0--|-----0*-----0-----0-----0--|-----2*-----2-----2--|
--2--2*-----2--2--2--|--2--2*-----2--2--2--|--2--2*-----2--2--2--2--2--|-----1*-----1--1--1--|
-----2*--------2-----|-----2*--------2-----|-----2*--------2-----2-----|---------------0-----|
---------0-----0-----|---------0-----0-----|---------0-----0-----0-----|---2-----2-----2-----|
  se     me pone ne  -    gra       y el     sol   bri  lla brilla y bri  -    lla

 B7-6/F#               B7/F#                 B7-6/F#               B7/F#
-----3*-----3-----3--|-----2*-----2-----2--|-----3*-----3-----3--|-----2*-----2-----2--|
-----0*-----0-----0--|-----0*-----0-----0--|-----0*-----0-----0--|-----0*-----0-----0--|
-----2*-----2-----2--|-----2*-----2-----2--|-----2*-----2-----2--|-----2*-----2-----2--|
-----1*-----1--1--1--|-----1*-----1--1--1--|-----1*-----1--1--1--|-----1*-----1--1--1--|
---------------0-----|---------------0-----|---------------0-----|---------------0-----|
--2------2-----2-----|--2------2-----2-----|--2------2-----2-----|--2------2-----2-----|
              el su -  dor    me  hace sur      cos       yo_hago  sur -  cos a  la tie

 B7-6/F#               Em
-----3*-----3-----3--|-----0*-----0--0----|-----------0--------0-------------------------|
-----0*-----0-----0--|-----0*-----0--0----|--------0-----0--------0----------------------|
-----2*-----2-----2--|-----0*-----0--0----|-----5-----------5--------5--.... repite Intro|
-----1*-----1--1--1--|--2--2*-----2--2/---|--7-------------------------------------------|
---------------0-----|-----2*--------2----|----------------------------------------------|
--2------2-----2-----|---------0-----0----|----------------------------------------------|
    rra    sin   pa  - rar.

  Em
Afirmo bien la esperanza
                            G
cuando pienso en la otra estrella
                        D7
nunca es tarde me dice ella
               Em
la paloma volará.

Em
Afirmo bien la esperanza
                            G
cuando pienso en la otra estrella
               D7
nunca es tarde me dice ella
               Em
la paloma volará.

Em (rasgueo 1)
Vuelan mariposas, cantan grillos,
la piel se me pone negra
                            B7/F#
y el sol brilla, brilla y brilla.
Y en la tarde cuando vuelvo,
en el cielo, apareciendo,
         Em
una estrella.

Em (rasgueo 2)          Em6
Nunca es tarde me dice ella
     Em                       B7-4/F# - B7-6/F#
la paloma volará, volará, volará
     B7/F#
como yugo de apretao
                      B7-6/F#
tengo el puño esperanzao
       B7/F#       E - A7+ - E!
porque todo cambiará.


un saludo pal Tavo y pa la Nacha(Hobbes).....y pongan mas TABS de Victor Jara....
de que sirven los acordes si la mayoria son arpegiadas y es muy peluo sacarla
.

Fuente original: LaCuerda
Colaborador original: LuLoSkY [[email protected]]

Que te parecio? Calificalo con estrellas!!

Rating: 4.5/10 (26 votos)

Este fichero es trabajo propio de su transcriptor y representa su interpretación personal de la canción. El material contenido en esta página es para exclusivo uso privado, por lo que se prohibe su reproducción o retransmisión, así como su uso para fines comerciales.


Deja tus comentarios:

Letras de Victor jara
Letras de canciones | Musica Independiente