Enviado por: Anonimo
Agrandar Letra
Reducir Letra
Imprimir


Otras Versiones de El Profeta:




La Vela Puerca, El Profeta

Intro:

1-0-0-0-0-----0-0------1-1-0----------/-----0-0-----------0---/
2---------3-1-----3-1---------3-1-0-1-/-0-------3-1-0-1-3-----/
3-------------------------------------/---2-------------------/
4-------------------------------------/-----------------------/
5-------------------------------------/-----------------------/
6-------------------------------------/-----------------------/

1-----0-0---------/-----0-0-----------0-/-1-1-0-0-------------/
2-0-------3-1-0-1-/-0-------3-1-0-1-3---/---------3-1-0-1-----/
3---2-------------/---2-----------------/---------------------/
4-----------------/---------------------/---------------------/

Matias Onandi:
por cualquier consulta mandenmen un E-Mail a [email protected]

Fuente original: LaCuerda
Colaborador original: Matias [[email protected]]
Aviso: Este fichero es trabajo propio de su transcriptor y representa su interpretación personal de la canción. El material contenido en esta página es para exclusivo uso privado, por lo que se prohibe su reproducción o retransmisión, así como su uso para fines comerciales.

Califica esta canción


Comentarios en Facebook