Enviado por:
Anonimo

Soda Stereo, Primavera 0

Primavera 0 (en vivo)

Bueno, aquí tengo los solos y la armonía de esta buena canción,
disfrútenla.

INTRO:
  C5                      B5              A#5
E---------------------------------------------------------
B---------------------------------------------------------
G---------------------------------------------------------
D---------------------------------------------------------
A-10-10-10-10-10-10-10-10-9-9-9-9-9-9-9-9-8-8-8-8-8-8-8-8-
E-8--8--8--8--8--8--8--8--7-7-7-7-7-7-7-7-6-6-6-6-6-6-6-6-

  A5              G#5             G5                C5
E---------------------------------------------------------------------------
B---------------------------------------------------------------------------
G---------------------------------------------------------------------------
D---------------------------------------------------------------------------
A-7-7-7-7-7-7-7-7-6-6-6-6-6-6-6-6-5-5-5-5-5-5-5-5-&-10-10-10-10-10-10-10-10-
E-5-5-5-5-5-5-5-5-4-4-4-4-4-4-4-4-3-3-3-3-3-3-3-3-&-8--8--8--8--8--8--8--8--


  B5              A#5             A5
E-------------------------------------------------
B-------------------------------------------------
G-------------------------------------------------
D-------------------------------------------------
A-9-9-9-9-9-9-9-9-8-8-8-8-8-8-8-8-7-7-7-7-7-7-7-7-
E-7-7-7-7-7-7-7-7-6-6-6-6-6-6-6-6-5-5-5-5-5-5-5-5-

  G#5                              G5
E-----------------------------------------------------------------
B-----------------------------------------------------------------
G-----------------------------------------------------------------
D-----------------------------------------------------------------
A-6-6-6-6-6-6-6-6-6-6-6-6-6-6-6-6-5-5-5-5-5-5-5-5-5-5-5-5-5-5-5-5-
E-4-4-4-4-4-4-4-4-4-4-4-4-4-4-4-4-3-3-3-3-3-3-3-3-3-3-3-3-3-3-3-3-

Ya debieron haber agarrado el ritmo, en la letra va lo mismo, sólo es
saber manejar los tiempos.
Se apaga la guitarra y empieza la voz:


Fluorescente azul
luz que baña mis sentidos
donde todo empieza a ser real
Siempre vuelve a dar
nuevas chances
              C5
una vuelta más
 B5
entera
C5             B5
Nena, tal vez fui
A#5                  A5
un sueño de otro, un rumbo incierto
  G#5                  G5 
La verdad es que nadie vive sin amor
C5           B5 
Ahora estoy aquí
  A#5              A5          G#5            
temblando frágil en la multitud
   G5
y la espero...


A5   A#5   C5   A#5
Primavera 0
A5   A#5   C5   A#5
Primavera 0

el ritmo (o el tiempo) de esta parte va así

  A5    A#5   C5       A#5   A5    A#5   C5       A#5
E-----------------------------------------------------
B-----------------------------------------------------
G-----------------------------------------------------
D-----------------------------------------------------
A-7-7-7-8-8-8-10-10-10-8-8-8-7-7-7-8-8-8-10-10-10-8-8-
E-5-5-5-6-6-6-8--8--8--6-6-6-5-5-5-6-6-6-8--8--8--6-6-

y luego vuelve al círculo inicial


C5     B5
El avión se va
   A#5            A5
recuerdos del futuro juntos
 G#5             G5           C5  B5  A#5  A5  G#5 
(Goles suenan a la distancia)

  G5
Te espero...

A5   A#5   C5   A#5

A5   A#5   C5   A#5

Ahora viene un solo, si no entienden los efectos al final se los explico.
Todo el solo va con vibrato.
       
E--------------------------------------------------------------------------8-8--------8-8--------8-8--------8-8--------8-8--------8-8------
B----------------------------5--6--8--8-10-8--10-8--10-8--10-8--10-8--10-8-----8-10-8-----8-10-8-----8-10-8-----8-10-8-----8-10-8-----8-10-
G----------------------5--7----------9-------9-----9-----9---------------------------------------------------------------------------------
D-------------5--7--9----------------------------------------------------------------------------------------------------------------------
A----5--7--8-------------------------------------------------------------------------------------------------------------------------------
E-8----------------------------------------------------------------------------------------------------------------------------------------

E-|8--8--8--8--8--8--8--8--8--8--8--8--8--8--8-|-|-11-11-11-11-11-11-11-11-11-11-11-11-11|-
B-|10-10-10-10-10-10-10-10-10-10-10-10-10-10-10|-|-13-13-13-13-13-13-13-13-13-13-13-13-13|-
G------------------------------------------------------------------------------------------
D------------------------------------------------------------------------------------------
A------------------------------------------------------------------------------------------
E------------------------------------------------------------------------------------------

Esta parte va muy rápida, aconsejo ir escuchando la canción original para tener más idea de este efecto.
Luego, vuelve al coro:

A5   A#5   C5   A#5
Primavera 0
A5   A#5   C5   D5
Primavera 0
A5   A#5   C5   A#5
Primavera 0
A5   A#5   C5
Primavera 0
_______________________________________________

Efectos:

|  |=lo que se encuentra entre estos corchetes se toca rapido y prolongado.
&= Deslizar de quinta a quinta, trástes.
Una recomendación es interpretar la canción con una buena pedalera, de esta manera
sonaran los efectos mucho mejor.

_____________________________________________________________________________


Aconsejo ir escuchando la canción para tener más idea de la tab.
Cualquier duda, pregunta, consejo o corrección sobre esta canción,
favor escribir al correo: [email protected]


GRACIAS TOTALES.

Fuente original: LaCuerda
Colaborador original: Daniel Naranjo [[email protected]]
Aviso: Este fichero es trabajo propio de su transcriptor y representa su interpretación personal de la canción. El material contenido en esta página es para exclusivo uso privado, por lo que se prohibe su reproducción o retransmisión, así como su uso para fines comerciales.

Califica esta canción


Comentarios en Facebook