Enviado por:
Anonimo

Soda Stereo, En Remolinos

Imprimir
^^ = elevar la cuerda 1 tono completo
^  = elevar la cuerda 1/2 tono

Nota: cuando esta por ejemplo 7^7 significa 
que la regresan la cuerda al tono normal
Ojala me entiendan..

...otra flor...

  
1-------------
2----------5^-
3-5^^--5p3----
4--------5----
5-------------
6------------- dos veces.



1------------------------------------------------------
2------------7^--7^7--5-7-7^--7^7---5-7-7^--7^7-5-7-7^-
3-7^^--7^^7-5------------------------------------------
4------------------------------------------------------
5------------------------------------------------------
6------------------------------------------------------

Fuente original: LaCuerda
Colaborador original: Sergio Silva [[email protected]]
Aviso: Este fichero es trabajo propio de su transcriptor y representa su interpretación personal de la canción. El material contenido en esta página es para exclusivo uso privado, por lo que se prohibe su reproducción o retransmisión, así como su uso para fines comerciales.

Califica esta canción


Comentarios en Facebook