Enviado por:
Anonimo

Soda Stereo, El Rito

POr FiN, El tan esperado intro de el rito de SOda StEreo  


1-----3--------3------3--------3-----3-------3--
2---6---6---6-------6----6---6-----6---6---6----
3-5-------5-------5--------5------5------4------
4-----------------------------------------------
5-----------------------------------------------
6-----------------------------------------------

1----3-------3-----3-------3-------3-------3-
2--6---6---6-----6---6---6-------6---6---6----
3-4------4-----4-------6-------6------ 6-----
4-------------------------------------------
5-------------------------------------------
6-------------------------------------------

1-----3-------3-----3-------3------3--------
2---6---6---6-----6---6---6------6----------
3-6-------5-----5-------5------5------------
4-------------------------------------------
5-------------------------------------------
6-------------------------------------------

(Se toca 2 veces y luego no se que acordes vienen, 
si se los saben por fa envienmelos y yo los publico)

Tambien mandenme sus comentarios al mail que viene alla abajo

Fuente original: LaCuerda
Colaborador original: Sergio Silva [[email protected]]
Aviso: Este fichero es trabajo propio de su transcriptor y representa su interpretación personal de la canción. El material contenido en esta página es para exclusivo uso privado, por lo que se prohibe su reproducción o retransmisión, así como su uso para fines comerciales.

Califica esta canción


Comentarios en Facebook