Enviado por:
Anonimo

Soda Stereo, El Rito

EL RITO

1/------------------------------------------------
2/------------------------------------------------       
3/--7 (x 16)---3(x 16)---7(x 16)---5(x 16)-
4/------------------------------------------------

1/------------------------------------------------
2/------------------------------------------------
3/------------------------------------------------
4/---1—1—1-1---0-1-0-1—1—1—1-1--1----

1/----------------------------------------------------
2/----------------------------------------------------
3/----------------------------------------------------
4/---3—3—3-3—1-3-1-3—3—3—3-3—0---------


1/------------------------------------------------
2/------------------------------------------------
3/------------------------------------------------
4/---1—1—1-1---0-1-0-1—1—1—1-1--1---

1/----------------------------------------------------
2/----------------------------------------------------
3/----------------------------------------------------
4/---3—3—3-3—1-3-1-3—3—3—3-3—0----------

1/--------------------------------------------------
2/--------------7(x 16)---5(x 16)------------   
3/---7(x 16)------------------------------------                 
4/------------------------------------3(x 16)—--

1/-----------------------------------------------
2/-----------------------------------------------
3/-----------------------------------------------
4/---0(x 16)---5(x 16)---3(x 32)-----------

1/------------------------------------------------
2/------------------------------------------------       
3/--7 (x 16)---3(x 16)---7(x 16)---5(x 16)-
4/------------------------------------------------

Se Repite ( estrofas y bridge)

1/----------------------------------------3(x 6)-
2/---------------------------2—3—3-----------
3/---3---3---3---3---3-3-----------------------
4/------------------------------------------------


1/------------------------------------------------
2/------------------------------------------------       
3/--7 (x 16)---3(x 16)---7(x 16)---5(x 16)-
4/------------------------------------------------

1/-----------------------------------------------
2/--------------9-8-7( x 16)---5(x 16)-------
3/---7(x 16)-----------------------------------                 
4/--------------------------------------3(x 16)

1/-----------------------------------------------
2/-----------------------------------------------
3/-----------------------------------------------
4/---0(x 16)---5(x 16)---3(x 32)-----------

1/----------------------------------------3(x 6)-
2/---------------------------2—3—3-----------
3/---3---3---3---3---3-3-----------------------
4/------------------------------------------------

Se repite hasta el final .

Probablemente tenga una serie de arreglos y hasta se 
confunda el bajo con la guitarra, pero esta es la base.

Fuente original: LaCuerda
Colaborador original: ]
Aviso: Este fichero es trabajo propio de su transcriptor y representa su interpretación personal de la canción. El material contenido en esta página es para exclusivo uso privado, por lo que se prohibe su reproducción o retransmisión, así como su uso para fines comerciales.

Califica esta canción


Comentarios en Facebook