Enviado por:
Anonimo

Soda Stereo, Disco Eterno

Imprimir
Disco Eterno (Versión en concierto)

Aquí explico los tres solos de guitarra que prácticamente
son los mismos, aunque van recorotados.

La explicación a esta tab está al final de la misma.

SOLO 1 (Intro)
E----------------------------------------------------------------------
B----------------------------------------------------------------------
G---------------------------------5-3----------------------------------
D-----------3-3-3vvv---3-0--------------------3-3-3-5/---5-3-5-3-------
A------3-5---------------------3--------3-3-5--------------------------
E----------------------------------------------------------------------

esto se repite 4 veces, luego sigue la parte final

E----------------------------------------------------3--|5-3-0|-----------
B-------------------------5-3-3-5-3-0-0-0-----------------------5-3-0-----
G--------------------------------------------5vvv---------------------5vv-
D--------------3-3-0#-----------------------------------------------------
A------3-3-5--------------------------------------------------------------
E-------------------------------------------------------------------------


E------------------------------3---5-------|5-7|-
B-----5-3-3-5-3-0-0-0--------5---5----5-|5#--7|--
G---------------------5vvv-----------------------
D------------------------------------------------
A------------------------------------------------
E------------------------------------------------

después de ésta parte del solo se repite la primera parte pero 2 veces.

Para entar a la letra (armonía) se hace este acorde:

E---------------------------
B---------------------------
G---------------------------
D---------------------------
A---3-3-5-------------------
E---------------------------

D9  Fmaj7  C9  G6
Me salí
              D9     Fmaj7     C9   G9
fuera del contexto
D9    Fmaj7    C9    G6
Practicar
         D9      Fmaj7     C9   G9
no te hace perfecto
D9          Fmaj7       C9     G9
poner un disco eterno
D9          Fmaj7       C9       G9
y moverme tornasol

Asus2   C9
un espíritu
Asus2
a veces seguro
         C9
otras veces incierto
Asus2             C9
vengo a descubrir
       Asus2                C9 
por qué este deseo crece...


Viene el segundo solo:

E----------------------------------------------------------------
B----------------------------------------------------------------
G---------------------------------5-3----------------------------
D------------3-3-3vvv---3-0------------------3-3-3-5/---5-3-5-3--
A-------3-5-------------------3---------3-3-5--------------------
E----------------------------------------------------------------

E-------------------------------------------------------------------------
B-------------------------------------------------------------------------
G---------------------------------5-3-------------------------------------
D------------3-3-3vvv---3-0------------------3/-3/-5/-5/-3/-5/-3/---------
A-------3-5-------------------3---------3-3-5----------------------3-3-5°-
E-------------------------------------------------------------------------

(Se apaga la gitarra).

Entre los dos
pasa un meridiano
latitud
de vidas paralelas

D9           Fmaj7      C9   G9
Abrir el sueño stereo
D9            Fmaj7     C9      G9
crear la dimensión

Asus2        C9 
sin disimular
Asus2
me voy desnudando
       C9
con cada sonido
Asus2      C9
alta fidelidad
Asus2              C9
cuando este deseo crece...


Ahora viene el último solo:

E---------------------------------------------------------------
B---------------------------------------------------------------
G--------------------------------5-3----------------------------
D------------3-3-3vvv---3-0------------------3-3-3-5/---5-3-5-3-
A-------3-5-------------------3--------3-3-5--------------------
E---------------------------------------------------------------

esto se repite 3 veces y luego se hacen estos acordes:

E----------------------------------------------------------------------------
B----------------------------------------------------------------------------
G------------------------------5-3-------------------------------------------
D----------3-3-3vvv---3-0-----------------3/-3/-5/-5/-3/-5/-3/--------3-3-0*-
A-----3-5-------------------3--------3-3-5----------------------3-3-5--------
E----------------------------------------------------------------------------

E--------------------------------------------------3--|5-3-0|----------
B-------------------------5-3-3-5-3-0-0-0------------------5-3-0-------
G------------------------------------------5vvv-------------------5vv--
D-------------3-3-0#---------------------------------------------------
A-----3-3-5------------------------------------------------------------
E----------------------------------------------------------------------


E---------------------------3---5-------|5-7|--
B-----5-3-3-5-3-0-0-0-----5---5----5-|5*--7|---
G----------------------5vvv--------------------
D----------------------------------------------
A----------------------------------------------
E----------------------------------------------


Asus2      C9
Un espíritu
   Asus2
A veces seguro
      C9
otras veces incierto
Asus2              C9
vengo a descubrir
  Asus2                C9
por qué este deseo crece...
_______________________________________________

Efectos:

v= vibrato
|  |= ligado de traste a traste...
*= no apagar la cuerda
/= Deslizar la cuerda hacia abajo en el traste
°= ligar hasta el final de los trastes

Notas:

D9--------->XX0230
Fmaj7----->X33210
C9---------->X32030
G9---------->X55430
Asus2------>X02200
___________________________________________________

Aconsejo ir escuchando la canción para tener más idea de la tab.
Excusenme por los tiempos, ya que es la primera vez que paso una
tablatura.
Cualquier duda, pregunta, consejo o corrección sobre esta canción,
favor escribir al correo: [email protected]

Fuente original: LaCuerda
Colaborador original: Daniel Naranjo [[email protected]]
Aviso: Este fichero es trabajo propio de su transcriptor y representa su interpretación personal de la canción. El material contenido en esta página es para exclusivo uso privado, por lo que se prohibe su reproducción o retransmisión, así como su uso para fines comerciales.

Califica esta canción


Comentarios en Facebook