Acordes y tablaturas para guitarra

Acordes y Tablaturas
Usuario: Password:

Buscar:
Acordes y Tablaturas >> Letra S >> Acordes de Soda stereo >> Disco eterno
Tablatura de Disco eterno, Soda stereo

Disco eterno

Soda stereo






Hey!! seguro que todos los "Sodastericos" esperaban ansiosos este
   buen "rolon" del Soda. O.K.!!, desde la ciudad mas caliente en el
   estado de Sonora, Mex. esto mas o menos dice asi:


   Estos son los TABS a ocupar:

    TAB 1     
     

          Dm       F              C           G.........TAB 2
   E]---------------------------------------------------------------
   B]---------------------------------------------------------------
   G]--------------54-------------------------20--------------------
   D]--0333----30-----------03333*5-------530-----------------------
   A]-3----------3---------3----------------------------------------
   E]---------------------------------------------------------------
     
  
    TAB 2 


   ...G              Dm.........TAB 3 
       
    D]---------0303--0----------   
    A]-------3---------------
    E]---------------------



     TAB 3

     ...Dm        F       C       G.................TAB 4  

     E]-------1-0-0----------3--3*5-------------------------
     B]----------3-3---00011---3--------3-1-0------------             
     G]---------------------------------------2-0-----------
     D]-------------------------------------------0---------
     A]-----------------------------------------------------
     E]----------------------------------------------------- 




     TAB 4

  ...G     Dm       F       C            G......... 
   
      E]--------1-0-0-------------3-----3*7----------------
      B]-----------3-3---00011--3-----3--------------------
      G]---------------------------------------------------
      D]---------------------------------------------------
      A]---------------------------------------------------
      E]---------------------------------------------------    
     
                El (*) indica ligadura


       NOTA: Como puedes ver cada TAB tiene continuidad, sosten el
     ritmo con la ayuda de los acordes indicados en la parte supe-
     rior de cada TAB. Los acordes Dm, F, C, y G, se tocan en posi-
     cion de los ya habituales.
        
               


       INTRO:

          4x[TAB 1]
          1x[TAB 2}
          1x[TAB 3]
          1x[TAB 4]

          2x[TAB 1]

       Y por ultimo para entrar en la cancion se taca esto

         A]---0---3----5------------


       
  D9        Fmaj7   C9   G6  
      Me sali 
                     D9    Fmaj7    C9   G6  
      fuera de contexto
  D9        Fmaj7    C9    G6 
      practicar
                      D9    Fmaj7    C9  G6                           
      no te hace perfecto
  D9            Fmaj7        C9  G6
      Poner un disco eterno 
  D9                 Fmaj7     C9   G6 
      y moverme el tornasol



     
   A9                  C9
      Un espiritu a veces 
         A9
      a veces seguro
             C9
      otras veces incierto
   A9               C9  
      quiero descubrir
           A9               C9
      por que este deseo crece.......



      2x[TAB 1]

     A]---0---3----5-------------



       Entre los dos
       pasa un meridiano 
       Latitud
       de vidas paralelas
       Abrir el sueño stereo
       crear la dimension

     
       Sin disimular
       me voy desnudando
       con cada sonido
       Alta fidelidad
       cuando este deseo crece....


     

      4x[TAB 1]
      1x[TAB 2]
      1x[TAB 3]
      1x[TAB 4]



       Un espiritu
       a veces seguro
       otras veces insierto
       vengo a descubrir 
       por que este deseo crece.....



        ACORDES:

        D9] xx0230
        Fmaj7]x33210
        C9]x32030
        G6]x55430
        A9]x02200



        Y eso es todo amigos, solo espero que alguien disfrute
       de esta buena rola.

Fuente original: LaCuerda
Colaborador original: ]

Que te parecio? Calificalo con estrellas!!

Rating: 4.0/10 (83 votos)

Este fichero es trabajo propio de su transcriptor y representa su interpretación personal de la canción. El material contenido en esta página es para exclusivo uso privado, por lo que se prohibe su reproducción o retransmisión, así como su uso para fines comerciales.


Deja tus comentarios:

Letras de Soda stereo
Letras de canciones | Musica Independiente