Enviado por:
Anonimo

Soda Stereo, De Musica Ligera

Para verlo mejo utilizar el Word con la letra Courier New 10
Medio:
1------------------------------------------------------------------------
2---7/10------10------10-------------------------------------------------
3--------12------12------12-----------------12--11-----------------------
4------------------------------14--12--14-----------14--12--14-----------      
5------------------------------------------------------------------------      
6------------------------------------------------------------------------


1-------------------10--------------10-----------------------------------
2---------------10------13--12--13------13--12--10--12--10---------------
3--------12-12-----------------------------------------------------------
4----14------------------------------------------------------------------
5------------------------------------------------------------------------
6------------------------------------------------------------------------

1------------------------------------------------------------------------
2----10---------------10----------------10-----------10------------------
3-------13-12-10---------13-12-10---------13-10---------13-10------------
4----------------14---------------14------------14------------14---------
5------------------------------------------------------------------------
6------------------------------------------------------------------------

1--------------------------------12--10-12--10--12-13-12-10--------------
2----10-----------10-----------------------------------------------------
3------13-10---------13-10-----------------------------------------------
4------------14------------14--------------------------------------------
5------------------------------------------------------------------------
6------------------------------------------------------------------------

1--------10-12--13--12--10--------------10-------------10----------------
2----12---------------------13----12-13----13-12---------13-12-----------
3--------------------------------------------------------------14--------
4------------------------------------------------------------------------
5------------------------------------------------------------------------
6------------------------------------------------------------------------

1------------------------------------------------------------------------
2----10-------------11---11---10-----10----------10----------11----------
3-------13-12---------------------------13-10-------13-10-------13--10---
4-------------14------------------------------14----------14-----------14
5------------------------------------------------------------------------
6------------------------------------------------------------------------

1------------------------------10-----------10---------------------------
2----13-12--------13-12-----------13-10--------13-10---------------------
3----------13-10--------13-10-----------13-----------13------------------
4------------------------------------------------------------------------
5------------------------------------------------------------------------
6------------------------------------------------------------------------

Final:
1------------------------------------------------------------------------
2----10------10------10--------------------------------------------------
3--------12------12------12------------------12--11----------------------      
4-----------------------------14---12--14------------14--12--14----------       
5------------------------------------------------------------------------      
6------------------------------------------------------------------------

1-------------------10--------------10-----------------------------------
2---------------10------13--12--13------13--12--10--12--10---------------
3--------12-12-----------------------------------------------------------
4----14------------------------------------------------------------------
5------------------------------------------------------------------------
6------------------------------------------------------------------------

1----------------10------10----------15--17(vibrato)---------------------
2----10--12--13------13------15--17--------------------------------------
3------------------------------------------------------------------------
4------------------------------------------------------------------------
5------------------------------------------------------------------------  
6------------------------------------------------------------------------

Espero que lo disfruten y hasta la proxima!!!!!

Fuente original: LaCuerda
Colaborador original: Axel Guliano [[email protected]]
Aviso: Este fichero es trabajo propio de su transcriptor y representa su interpretación personal de la canción. El material contenido en esta página es para exclusivo uso privado, por lo que se prohibe su reproducción o retransmisión, así como su uso para fines comerciales.

Califica esta canción


Comentarios en Facebook