Acordes y tablaturas para guitarra

Acordes y Tablaturas
Usuario: Password:

Buscar:
Acordes y Tablaturas >> Letra S >> Acordes de Soda stereo >> De musica ligera
Tablatura de De musica ligera, Soda stereo

De musica ligera

Soda stereo






(Version Ultimo Concierto)

"Tengo una buena cancion para cantar, a ver"

Esta version comienza con unos bajos que son asi:

e----------------------------     e----------------------------------
B----------------------------     B----------------------------------
G----------------------------     G--------------------------------2-
D--4-4-4---------7-7-7-------     D---------4-4-4---------7-7-7-7--2-
A--2-2-2--5-5-5--5-5-5--7-7-7     A--7-7-7--2-2-2--5-5-5--5-5-5-5--2-
E---------3-3-3---------5-5-5     E--5-5-5---------3-3-3-------------

"Ella durmio..."               "...Las trampas del amor."

Luego viene el coro cantado por el publico:

e--------------------------------------
B--------------------------------------
G--------------------------------------
D--------------------------------------
A--------------------------------------
E--------------------------------------

 De aquel amor, de musica ligera.
                                G   D
e-------------------------------3---2--
B-----------------------------------3--
G-----------------------------------2--
D--------------------------------------
A-------------------------------2------
E-------------------------------3------
 Nada nos libra, nada mas queda      

 "Nada mas queda"

  Bm  G   D   A  Bm(5)
e-1---3---2---0---1---
B-2---3---3---2---2---
G-3---0---2---2---3---
D-3---0---0---2---3--- "¡A volar todos!" (El bajo hace un slide 
A-1---2-------0---1---                     en la sexta cuerda) 
E-1---3-----------1---                                   

Esto realmente lo toca el bajo:

e--------------------------------------------------------------------
B--------------------------------------------------------------------
G--------------------------------------------------------------------
D--------------------------------------------------------------------
A-2-2-4-5--,--5-5-4-2-0---2--,--2-2-4-5--,--5-5-4-2-0-2--------------
E-----------------------2--------------------------------             

Mientras la guitarra toca repetidamente:

  Bm  G   D   A   
e-1---3---2---0--
B-2---3---3---2--
G-3---0---2---2--
D-3---0---0---2--
A-1---2-------0--
E-1---3----------

Luego, cuando acaba el bajo la guitarra para y quedan solo el bajo y
la bateria. El Bajo toca lo que sale arriba y la guitarra mientras
tanto lo que sale abajo:

G--------------------------------------------------
D--------------------------------------------------
A---2-2---------5-5---------2-2---------5-5--------
E--------3-3-3-------5-5-5-------3-3-3-------5-5-5-

"No le enviare..."  "cenizas de rosas"

e------------3--2-2------------------3--2-2--0-0-0-
B------------3--3-3------------------3--3-3--2-2-2-
G------------0--2-2------------------0--2-2--2-2-2-
D------------0--0-0------------------0--0-0--2-2-2-
A------------2-----------------------2-------0-0-0-
E------------3-----------------------3-------------

---------------------------------------------------------------------

G----------------------------------------------------
D----------------------------------------------------
A-----2-2---------5-5---------2-2---------5-5--------
E----------3-3-3-------5-5-5-------3-3-3-------5-5-5-

"Ni pienso evitar..." "un roce secreto... (aja, aja...)

e--------------3--2-2------------------3--2-2--0-0-0-
D--------------3--3-3------------------3--3-3--2-2-2-
G--------------0--2-2------------------0--2-2--2-2-2-
D--------------0--0-0------------------0--0-0--2-2-2-
A--------------2-----------------------2-------0-0-0-
E--------------3-----------------------3-------------

Imagino que ya cogieron el ritmo. Se necesita coordinacion en ese
pedazo pero despues de sacado una vez es muy facil. Luego sigue el
coro que es asi:

  Bm       G     D     A       Bm     G    D   A
e-1--------3-----2-----0-------1------3----2---0-
B-2--------3-----3-----2-------2------3----3---2-
G-3--------0-----2-----2-------3------0----2---2-
D-3--------0-----0-----2-------3------0----0---2-
A-1--------2-----------0-------1------2--------0-
E-1--------3-------------------1------3----------

"De aquel amor..."    "de musica ligera..." 


e-1--------3-----2-----0-------1------3----2---0-
B-2--------3-----3-----2-------2------3----3---2-
G-3--------0-----2-----2-------3------0----2---2-
D-3--------0-----0-----2-------3------0----0---2-
A-1--------2-----------0-------1------2--------0-
E-1--------3-------------------1------3----------

"Nada nos libra..."    "nada mas queda..."

Despues de un poco de bateria paran los acordes y la guitarra toca 
esto mientras el bajo toca lo mismo de las estrofas:

e-5-7-5-7-5-7-------------------1-2--14-12-10-12-13-12-10-9--7-5-4-
B-------------7-5-7-5-7-5-5-5/2------------------------------------
G------------------------------------------------------------------
D------------------------------------------------------------------
A------------------------------------------------------------------
E------------------------------------------------------------------

En ese pedazo viene una vibracion dificil de hacer sin pedal, pero yo
si tengo asi que lo siento por los que no.

e-14-12-14--12-14-15-14-12--12-14-15-14-12-10-9-10-12-10-9---------
B------------------------------------------------------------------
G------------------------------------------------------------------
D------------------------------------------------------------------
A------------------------------------------------------------------
E------------------------------------------------------------------

Luego viene una vibracion dificil de escribir en la segunda cuerda.
Cuando acaba este punteo sigue otra vez el coro, "nada mas... nada
mas queda" y luego varios redobles de bateria...

"No solo no hubieramos sido nada sin ustedes, sino con toda la gente
que estuvo a nuestro alrededor desde el comienzo. Algunos siguen
hasta hoy..."

"¡Gracias Totales!"  G    D  
e--------------------3----2-----------
B--------------------3----3-----------
G--------------------0----2-----------
D--------------------0----0-----------
A--------------------2----------------
E--------------------3----------------

Espero que la disfruten

Fuente original: LaCuerda
Colaborador original: Juan Carlos Sierra =============================== www.atame.org =============================== Este fichero es trabajo propio de su transcriptor y representa su interpretación personal de la canción. El usuario se compromete a utilizar este material únicamente para su aprendizaje y estudio personal. Para poder incluir este fichero en otro sitio Web, es necesario mencionar el origen del mismo [www.atame.org]

Que te parecio? Calificalo con estrellas!!

Rating: 7.5/10 (983 votos)

Este fichero es trabajo propio de su transcriptor y representa su interpretación personal de la canción. El material contenido en esta página es para exclusivo uso privado, por lo que se prohibe su reproducción o retransmisión, así como su uso para fines comerciales.


Deja tus comentarios:

Letras de Soda stereo
Letras de canciones | Musica Independiente