Enviado por:
Anonimo

Soda Stereo, Cuando Pase El Temblor

Bueno, esta vaina es mas o menos asi
como todo, tiene arreglos, y errores, asi que arreglenselas.

Intro
g|--2--5--2--0-------------------------------------------------
d|-------------5-----------------------------------------------
a|---------------0---------------------------------------------
e|-------------------------------------------------------------

g|-------------------------------------------------------------
d|-------------------------------------------------------------
a|-------------------------------------------------------------
e|--5--5--5-5--5--3--3--3-3--3--1--1--1-1--1--0--0--0-0--0-----

g|-------------------------------------------------------------
d|-------------------------------------------------------------
a|-------------------------------------------------------------
e|--5--5--5-5--5-----3-------3--1--1--1-1--1-----3-------3-----
     yo       caminare   entre  las   piedras 


g|-----------------------------------------------------------
d|-----2--5-2--------------------2-5-2-----------------------
a|--5-----------------------2*3--------------5------5---2----
e|--------------------------------------3--6---6--3---1------
             En mis piernas

Coro
g|----------------------------------------------------------
d|--------------------2--2--2-2--2-2-2----------------------
a|--2--2--2-2--2-2-2-------------------2--2--2-2--2-2-2-----
e|----------------------------------------------------------

g|----------------------|--|--|--|---|--|--|------------------
d|--2--2--2-2--2-2-2----|--|--|--|---|--|--|------------------
a|-------------------3--|--|--|--|--8|--|--|------------------
e|----------------------|--|--|--|---|--|--|------------------
                        Se mantiene C por 4 barras
                        O se lleva el ritmo de la bateria en C   

"Outro"
g|-------------------------------------------------------------
d|-------------------------------------------------------------
a|--3--3--3-3--3--5--5--5--------------------------------------
e|-------------------------6--6--6--6--------------------------

Si algo mescriben

Fuente original: LaCuerda
Colaborador original: ]
Aviso: Este fichero es trabajo propio de su transcriptor y representa su interpretación personal de la canción. El material contenido en esta página es para exclusivo uso privado, por lo que se prohibe su reproducción o retransmisión, así como su uso para fines comerciales.

Califica esta canción


Comentarios en Facebook