Enviado por:
Anonimo

Soda Stereo, Angel Electrico

Intro Guitarra    intro...
G----------------|-------------------------------
D----------------|----3---5---3---5---3----------   X 4
A----------------|--5---5---5---5---5------------	  		
E----------------|-------------------------------

Cont. intro y verso

G------------------------------------------------
D-----3---5---3---5---3-----5---7---5---7---5----
A---5---5---5---5---5----7----7---7---7---7------
E------------------------------------------------
										    
G------------------------------------------------
D------------------------------------------------
A--7-9-7---7-9-7---7h9-9--6-8-6---6-8-6---6h8-8--
E--------7-------9--------------6-------8--------

de esperar que algo quiebre el unisono...

G----------------------------
D----------------------------		X 4
A--5-5-7---710~~~/----------		
E--------5-------------------

G-------------------------------------
D-------------------------------------		X 4
A-------------------------------------
E--5-5-5555510-10-1010101010/--------

G-------------------------------------
D------------------3-3-3-3-3-3-3-3----		X 4
A-------------------------------------
E--3-3-3-3-3-3-3-3--------------------



G------------------------------------------------
D-----3---5---3---5---3-----5---7---5---7---5----
A---5---5---5---5---5----7----7---7---7---7------
E------------------------------------------------
							X 4			   X 4    
G------------------------------------------------
D------------------------------------------------
A--7-9-7---7-9-7---7h9-9--6-8-6---6-8-6---6h8-8--
E--------7-------9--------------6-------8--------

final:

G-------------------------------
D----3---5---3---5---3----------   X 4
A--5---5---5---5---5------------	  		
E-------------------------------

Fuente original: LaCuerda
Colaborador original: Christian Arvizu [[email protected]]
Aviso: Este fichero es trabajo propio de su transcriptor y representa su interpretación personal de la canción. El material contenido en esta página es para exclusivo uso privado, por lo que se prohibe su reproducción o retransmisión, así como su uso para fines comerciales.

Califica esta canción


Comentarios en Facebook