Acordes y tablaturas para guitarra

Acordes y Tablaturas
Usuario: Password:

Buscar:
Acordes y Tablaturas >> Letra S >> Acordes de Ska-p >> Mis colegas
Bajo de Mis colegas, Ska-p

Mis colegas

Ska-p






La cancion es sencilla, tenes que marcar la nota casi siempre, pero en algunas ocasiones no es asi:


Al final de cada pre-coro, ahi hay que hacer asi:

        A                    C                   D 

G -----------------|------------------|--------------------------
D -----------------|------------------|--------------------------
A -0-0-0-0-0-0-0-0-|--3-3-3-3-3-3-3-3-|-5/17-17-17-17-17-17-17---
E -----------------|------------------|--------------------------

Despues cuando dice al final de la primera parte del coro, hace asi:

       D

G ------------|------------------------
D ------5-----|------------------------
A -5-5-----5--|------------------------
E ------------|------------------------

Y el final de la segunda parte es asi:

      D
G ----------------------------|--------
D ----------------------------|--------
A -5/17-17-17-17-17-17-17/3---|--------
E ----------------------------|--------

Cuando dice existe una alternativa, durante esa parte hace:

        C                    G                   C

G -----------------|--------------------|-------------------
D ---------2--5--2-|--------------------|---------2--5--2---
A -3-3--3----------|--------------------|-3-3--3------------
E -----------------|-3-3--3-3--5-5--2-2-|-------------------

        G                    C                   G                 

G --------------------|---------------|---------------------
D -5-5--3-3--2-2------|------2--5--2--|---------------------
A ----------------5-5-|-3-3-----------|------------2-2--3-3-
E --------------------|---------------|--3-3--5-5-----------

        D                   C 

G -----------------|------------------
D -----------------|------------------
A -5-5-5-5-5-5-5-5-|-3-3-3-3-3-3-3-3--
E -----------------|------------------

Antes de cada agresividad, hace:

       C

G --------------------|------------------
A --------------------|------------------
A -3-3-3-3-3-3-3/15/3-|------------------
E --------------------|------------------
      
Al final del solo hace

                 D

G -------------------------------------------|
D ----5----5----5----5----5------------------|
A -5----5----5----5----5---5-5-5-5-5-5-5-5---|
E -------------------------------------------|

Esto son todos los piques que hace el bajista de ska-p (Julio)


Este tab va dedicado para la mauriquia y toda la banda del carque
Aguante ska-p y la crema!!!!!!!!!!!!!!!1

Fuente original: LaCuerda
Colaborador original: gonzalo paolilo [[email protected]]

Que te parecio? Calificalo con estrellas!!

Rating: 3.8/10 (13 votos)

Este fichero es trabajo propio de su transcriptor y representa su interpretación personal de la canción. El material contenido en esta página es para exclusivo uso privado, por lo que se prohibe su reproducción o retransmisión, así como su uso para fines comerciales.


Deja tus comentarios:

Letras de Ska-p
Letras de canciones | Musica Independiente