Enviado por: Anonimo
Agrandar Letra
Reducir Letra
Imprimir


Otras Versiones de Sueño De Morir:




Alex Campos, Sueño De Morir

HOLAAAAAAAAAAAAAAA…..
Esta es mi tercera transcripción !!!!, espero que les guste.
OK. Muchachos(as) coloquen el Puente en el segundo traste p`que
suene chevere


 [Los trastes empiécenlos a contar después del Puente]


INTRO: empieza como un estilo medio árabe con violín.
GTR: Arpegio

         Am                   C              G
e|---------------0----|--------3------|-------3-----|
B|----------1---------|----------1----|---------0---|
G|-------2-----2------|-----0---------|-----0-------|
D|--------------------|---------------|-------------|
A|---0----------------|---3-----------|---2---------|
E|--------------------|---------------|-------------|
           Estando cerca del momento     allí te conocí

              Am                      C             G
e|---------------0----------|--------0------|---------10---|
B|----------1----------1----|----------1----|-------8------|
G|-------2-----2----2----2--|-----0---------|-----0--------|
D|--------------------------|---------------|---0----------|
A|---0----------------------|---3-----------|--------------|
E|--------------------------|---------------|--------------|
Miro tu rostro y tu silencio sabría aprender de ti

              Am                      C             G
e|---------------0----------|--------3----0---|--------3----0----|
B|----------1----------1----|-----------------|------------------|
G|-------2-----2----2----2--|-----0----0------|-----0-----0------|
D|--------------------------|-----------------|------------------|
A|---0----------------------|---3-------------|---2--------------|
E|--------------------------|-----------------|------------------|
      Tu cuerpo lento y maltratado el mundo te golpeo

               Am                     C             G
e|---------------0----------|--------------8--|--------------0--|
B|----------1----------1----|--------8--------|--------3--------|
G|-------2-----2----2----2--|-----0-----0-----|-----0-----0-----|
D|--------------------------|-----------------|-----------------|
A|---0----------------------|----------------|---2-------------|
E|--------------------------|---8--------------|-----------------|
Sangre y lágrimas mezcladas       Fue tu Sueño de

          Am               C                     G
e|----------0-------|---3---0-----|-------10-------10----|
B|-------------1----|---------1---|---8--------8---------|
G|-------2----------|-----0-------|-----0---0----0---0---|
D|---2--------------|-------------|----------------------|
A|------------------|---3---------|----------------------|
E|------------------|-------------|----------------------|
 Morir                             Fue tu Sueño de

          Am                C                G
e|----------0-------|-------0-----|--------10---------10----|
B|-------------1----|---------1---|------8-------8----------|
G|-------2----------|-----0-------|---0-------0----0-----0--|
D|---2--------------|-------------|-------------------------|
A|------------------|---3---------|-------------------------|
E|------------------|-------------|-------------------------|
Morir

         Am             C           G
e|---------------0----|--------3-----0-|-----------10--|
B|----------1---------|----------------|-------8-------|
G|-------2-----2------|-----0-----0----|-----0---0-----|
D|--------------------|----------------|---0-----------|
A|---0----------------|---3------------|---------------|
E|--------------------|----------------|---------------|
       El cielo anuncia el momento Que marcara ya el fin

         Am                  C               G
e|---------------0----|--------3-----0-|---------10---|
B|----------1---------|----------------|-------8------|
G|-------2-----2------|-----0-----0----|-----0--------|
D|--------------------|----------------|---0----------|
A|---0----------------|---3------------|--------------|
E|--------------------|----------------|--------------|
 La lluvia moja el sufrimiento El cielo oirá el gemir

              Am                      C             G
e|---------------0----------|--------3----0---|--------3-----0--|
B|----------1----------1----|-----------------|-----------------|
G|-------2-----2----2----2--|-----0----0------|-----0-----0-----|
D|--------------------------|-----------------|-----------------|
A|---0----------------------|---3-------------|---2-------------|
E|--------------------------|-----------------|-----------------|
El padre ve morir su hijo Ve a su niño allí partir


               Am                      C             G
e|---------------0----------|--------3------0--|----------10--|
B|----------1----------1----|------------------|-------8------|
G|-------2-----2----2----2--|-----0-----0------|-----0---0----|
D|--------------------------|------------------|---0----------|
A|---0----------------------|---3--------------|--------------|
E|--------------------------|------------------|--------------|
      El día se convierte en Luto Fue tu Sueño de

            Am             C                G
e|----------0-------|---3---0-----|-------10-------10----|
B|-------------1----|---------1---|---8--------8---------|
G|-------2----------|-----0-------|-----0---0----0---0---|
D|---2--------------|-------------|----------------------|
A|------------------|---3---------|----------------------|
E|------------------|-------------|----------------------|
 Morir                             Fue tu Sueño de

           Am              C                 G
e|----------0-------|---3---0-----|-------10-------10----|
B|-------------1----|---------1---|---8--------8---------|
G|-------2----------|-----0-------|-----0---0----0---0---|
D|---2--------------|-------------|----------------------|
A|------------------|---3---------|----------------------|
E|------------------|-------------|----------------------|

Morir


      ==>CORO<==

Bm                            G
Sangre y Silencio fue el precio
                      D
Fue el costo de mí vivir
                       A
No sabré como agradecerte
                  Bm
Yo mi vida daré a ti
                     G
En todo tiempo seré tuyo
                         D
Una ofrenda me entrego a ti
                      A
Tu sueño hoy se hizo Vida
              (Am  C  G)x2
Tu Sueño de Morir


            Am                   C                 G
e|---------------0------|----------0-------|---------10------10--------|
B|----------1------1----|--------1---1-----|-------0-----0-------0-----|
G|-------2-----------2--|-----0---------0--|-----0---------0--------0--|
D|----------------------|------------------|---0-----------------------|
A|---0------------------|---3--------------|---------------------------|
E|----------------------|------------------|---------------------------|

             Am                   C            G
e|---------------0------|---3----------|----3------------|
B|----------1------1----|--------5-----|----------5------|
G|-------2-----------2--|-----0----0---|-------0------0--|
D|----------------------|--------------|-----------------|
A|---0------------------|---3----------|----2------------|
E|----------------------|--------------|-----------------|


  III ESTROFA

Aunque no entienda el silencio
Al dar tu vida por mí

Ayúdame a pagar el precio
Quiero ser digno de ti

Tú que estas allí en el cielo
Ayúdame a vivir

Tú que pagaste por mi deuda
   Que tu Sueño viva en mí
   Que tu Sueño viva en mí


      ==>CORO<==

Bm                            G
Sangre y Silencio fue el precio
                      D
Fue el costo de mí vivir
                       A
No sabré como agradecerte
                  Bm
Yo mi vida daré a ti
                     G
En todo tiempo seré tuyo

                         D
Una ofrenda me entrego a ti
                      A
Tu sueño hoy se hizo Vida
                  Bm
Tu Sueño de Morir

                             G
Sangre y Silencio fue el precio
                      D
Fue el costo de mí vivir
                       A
No sabré como agradecerte
                  Bm
Yo mi vida daré a ti
                     G
En todo tiempo seré tuyo
                         D
Una ofrenda me entrego a ti
                      A
Tu sueño hoy se hizo Vida
              (Bm  G  D  A)x4
Tu Sueño de Morir


Me falto el tab de la tercera estrofa pero con eso que esta ahí ya le
agarran la onda OK., sino escríbanme a mi correo y después se las
envió
.::Espero que les haya gustado porque es una canción que hace
reflexionar, habla sobre la muerte de Jesús y eso si que es una “Gran
Historia”::.
Muchos saludos para La Iglesia “La Armadura de Dios” (Alexandra [mi
hermanita] a mis padres Lorenzo y Josefa los quiero mucho) y para
todos los que me conocen acá en Ecuador y para todos mis
>>cyberbrothers<< en Argentina, Mexico, Peru, Guatemala, El Salvador,
etc.
Gracias por escribirme, que Dios los bendiga a todos.
Alguna pregunta o sugerencia por fa` no duden en escribirme.
TODA LA GLORIA Y LA HONRRA PARA NUESTRO FRIEND QUE NUNCA FALLA, EL MAS
CHEVERE “JESUS”

ATT.
Daniel. (alias_myz)

Fuente original: LaCuerda
Colaborador original: Daniel Mayanza [[email protected]]
Aviso: Este fichero es trabajo propio de su transcriptor y representa su interpretación personal de la canción. El material contenido en esta página es para exclusivo uso privado, por lo que se prohibe su reproducción o retransmisión, así como su uso para fines comerciales.

Califica esta canción


Comentarios en Facebook