Enviado por:
Anonimo

Silvio Rodriguez, Compañera

Imprimir
Hola amigos, partitura cortesía de

http://www.elrincondelcantautor.com

Espero que os guste esta canción de Silvio, y espero
no tenga errores, en cualquier caso cualquier
rectificacion es bienvenida a [email protected]

|----------------------- Estrofa A ---------------------|

|------------5--2----------------------------------0----
|----------5--------------2^3---------0^2^0---0------0--
|--------6--------------2-----2-------------2---2-------
|------7--------0-----0-------------2-------------------
|-------------------0-----------------------------------
|---5---------------------------------------------------

-----------------------------------------0-------------|
---------0^2--3-----3--------0^2^0---0-----0-----------|
-------2--------2------------------2---2-----2---------|
-----2------------0-------2----------------------------|
---0----------0---------0------------------------------|
-------------------------------------------------------|

A)La canción es la amiga
              La
que me arropa
    Re          La
y después me desabriga;
     Rem7
la más clara y obscura,
     LAd        Sid la más verde y madura,
        La
la más íntima
      SOL              Fa# (III-3_0 IV-4 III-0_3 II-0_2) la más indiscreta.
    SIm         Fa#m
La canción me da todo,
Sim              Fa#m
aunqe no me respeta:
           Sim        Fa#m
se me entrega feliz
      (VI-5)       Sim·SI7
cuando me viola.
         La          Mi/Sol#
La canción es la ola
Fa#m             Do#m
que me eleva y me hunde,
             Sol
que me fragua
      Fa#m             Sim·Rem
lo mismo que me funde.
      La             Si/La·Rem
La canción compañera,
               MIm/RE    Mi/Sol#      La*
virginal y ramera, la canción.

A)Comenzamos un día por los tiempos
de siempre y todavía; comenzamos felices
a juntar cicatrices, como buenas señales de los años,
y, peldaño a peldaño, levantamos paisaje
sin excusa, sin ruego y sin ultraje.
¿Quién se atreve a decirme que debo arrepentirme
de la esperma quemante que me trajo?
Porque sangra de abajo yo no vendo ni rajo mi pasión.

A)Entre drama y comedia he llegado trovando
a la edad media; torpe, pero sincero,
aún no soy caballero
(y que el cielo me libre de cordura)
No me embriaga la altura ni me aburren los sueños;
no es por moda que estallo y que me empeño.
El amor sigue en brete y el camino a machete,
más no lloro por tal ni me amilano,
si conservo mis manos, mi sudor y el humano corazón.

Transcripción de servidor, Javik.

Fuente original: LaCuerda
Colaborador original: Javier Nuñez Fernandez [[email protected]]
Aviso: Este fichero es trabajo propio de su transcriptor y representa su interpretación personal de la canción. El material contenido en esta página es para exclusivo uso privado, por lo que se prohibe su reproducción o retransmisión, así como su uso para fines comerciales.

Califica esta canción


Comentarios en Facebook