Enviado por:
Anonimo

Silvio Rodriguez, Como Esperando Abril

Imprimir
LES ENVÍO LA MELODIA DE LA CANCIÓN. ESPERO QUE LES
GUSTE.

E-------0-------1-------------------3-------1-------
B-1--3-------------5--3--1--3--5--1------------5--3-
G---------------------------------------------------
D---------------------------------------------------
A---------------------------------------------------
E---------------------------------------------------

E-------------3----------3-----1--0-----1--0--------
B-1--3--5--1-------5--1--------------1---------1--3-
G---------------------------------------------------
D---------------------------------------------------
A---------------------------------------------------
E---------------------------------------------------

SALUDOS A LA PREPA 9 U.N.A.M. Y AL GRUPO 553.

Fuente original: LaCuerda
Colaborador original: marco antonio oliveros sánchez [[email protected]]
Aviso: Este fichero es trabajo propio de su transcriptor y representa su interpretación personal de la canción. El material contenido en esta página es para exclusivo uso privado, por lo que se prohibe su reproducción o retransmisión, así como su uso para fines comerciales.

Califica esta canción


Comentarios en Facebook