Enviado por:
Anonimo

Silvio Rodriguez, Cayo Una Estrella

Imprimir
A patricia
una hebra de diamantes por el cielo



Nota: Cejilla en el 3° traste

Intro: 

e|------0-----------0--------0---------------------------------------|
B|----0---3--2-0-0----3-2-0----3-2-0--------3-------3------3---0-----|
G|-----------------------------------2-0--2---2---2---2--2---2-------|
D|-------------------------------------------------------------------|
A|-------------------------------------------------------------------|
E|--3--------3------------3---------------2-----1--------1-----------|


e|---------------0------------------------------------------3-----2-----2-----2-2p0----|
B|------3----------3-2-----------2---------3-5p3----------0-----3-----3-----3-------3--|
G|----0---0----2---------------0---------4--------------0-----2-----3-----4------------|
D|---------------------2-----2---------4--------------0-------------------------0------|
A|-----------0-----------0-1-------1-2----------2p0------------------------------------|
E|--0-----------------------------------------------3----------------------------------|


(Con la misma base de la intro)

     Sol
A) Cayo una estrella
                                  Re9/Fa#
una hebra de diamantes por el cielo
Re9/Fa     Re9/Mi
y un  niño la encontró
              La La4 La
y se le vio re      ir
La7/Sib Sim        
y pidió  para diez
Sol       Re     Re5+
y pidió para mil,
        Re7/6
cien mil
   Re    
y todos.



(Base para la segunda estrofa)

e|---3------3----------2---------------3---------2---------0-----0------------|
G|--------0---0------3---3-----------0---0-----3---3-----------0--------------|
B|------0----------2-------2-------0---------2-------2-------1----------------|
D|----------------------------------------------------------------------------|
A|----------------------------------------------------------------------------|
E|---3-----------2---------------3---------2---------------0------------------|


e|-------2------2------2------2---3-------------0--0-----0------------------------|
G|-----3------3------3------1-------0---------0-----------------------------------|
B|---2------3------4------2-----------0-----1----------2--------------------------|
D|---------------------------------------------------2----------------------------|
A|-------------------------------------------------0------------------------------|
E|--------------------------------3------3--0-----------------0H2--3--------------|

     Sol              Re/Fa#
Cayo una estrella
Sol             Re/Fa#
cayo un cabello
Mi                 Re
cayo un destello,
   Re5+          Re7/6
cayo una sonrisa
       Re7          Sol
de plata en la brisa,
    Mi La                  
cayo una canción.


(Esta estrofa va rasgueada)
 
      Sol                 Re/Fa#
B2) cayo una estrella
Sol             Fa# Sim Mi/Sol#
cayo un cabe    llo
                     Re
cayo un destello,
    Re5+         Re7/6
cayo una sonrisa
        Re7         Sol
de plata en la brisa,
    Mi               La4 La 

Coda:

e|------0-----------0--------0---------------------------------------|
B|----0---3--2-0-0----3-2-0----3-2-0--------3-------3------3---0-----|
G|-----------------------------------2-0--2---2---2---2--2---2-------|
D|-------------------------------------------------------------------|
A|-------------------------------------------------------------------|
E|--3--------3------------3---------------2-----1--------1-----------|


e|---------------0------------------------------------------3-----2-----2-----2-2p0----|
B|------3----------3-2-----------2---------3-5p3----------0-----3-----3-----3-------3--|
G|----0---0----2---------------0---------4--------------0-----2-----3-----4------------|
D|---------------------------2---------4--------------0-------------------------0------|
A|-----------0---------3-2-1-------0-2----------2p0------------------------------------|
E|--0-----------------------------------------------3----------------------------------|


E|-------------2-------0--3p2--0------2-----|
G|-----------3-------0------------3---3-----|
B|----0----2-------1------------------2-----|
D|------------------------------------0-----|
A|------------------------0-----------------|
E|--3----2-------0--------------------------|

Fuente original: LaCuerda
Colaborador original: Pablo Espinosa [[email protected]]
Aviso: Este fichero es trabajo propio de su transcriptor y representa su interpretación personal de la canción. El material contenido en esta página es para exclusivo uso privado, por lo que se prohibe su reproducción o retransmisión, así como su uso para fines comerciales.

Califica esta canción


Comentarios en Facebook