Enviado por:
Anonimo

Silvio Rodriguez, Cancion De Navidad

Imprimir
Bueno como se los dije aqui esta la mejor cancion del
album Rodriguez

Otra mas para ti,mi amor Mª Alejandra por que sin
tu inspiracion no podria hacer nada.

Ya saben,para que les salga mas facil hacer los arpegios
hagan primero el acorde que se encuentra arriba del tab.

NOTA:Los acordes que estan entreparentesis no se
deben de colocar solo deben puntear el arpegio



Introducción:

     Do          Sol/Si    Lam       Mim/sol     Fa        Mim
1|-------------------------------------------------------1-0--------------|
2|---1------1----3-----3---1-----1---0------0----------1----------0-------|
3|--------0----------0---------2----------0------2---2----------0---------|
4|------2----------0---------2----------2----------3----------2-----2-----|
5|---3-----------2---------0----------------------------------------------|
6|-----------------------------------3-----------1---------0--------0-----|

     Rem           Do           Sol7/si*  LAaum4        Sol
1|------------0h1--0--------0---------------------------------------------|
2|----------3---------1---1-----3-----3----------3-----------3------------|
3|--------2-------------0-----------0---0---2---------0-0------0----------|
4|---0----------------------------3------------3---3-------0--------------|
5|-----------------3------------2---------0-------------------------------|
6|------------------------------------------------------3-----------------|

     Fa                 Do           Rem       Do         Sol/Si
1|-------------1--------0-------0------1---------0------------------------|
2|---------1-----1----------1--------------2---------1------3-------------|
3|-----2-----2-----2----------0----------3---------0------------0---------|
4|-------3----------------2----------0------------------------0-----------|
5|----------------------3----------------------3----------2---------------|
6|---3--------------------------------------------------------------------|

      Lam         Sol     (Fa)
1|----------------------------------------|
2|------1-------------------------1-------|
3|-----------(2)--------------------------|
4|--------(2)-----------------0-----------|
5|----0-------------------------2-3-------|
6|----------------3-------1h3-------------|




(A)

     Do          Sol/Si    Lam       Mim/sol     Fa
1|-------------------------------------------------------1-|
2|---1------1----3-----3---1-----1---0------0----------1---|
3|--------0----------0---------2----------0------2---2-----|
4|------2----------0---------2----------2----------3-------|
5|---3-----------2---------0-------------------------------|
6|-----------------------------------3-----------1---------|
  El fin de año huele a compras, enhorabuenas y postales


    Mim        Rem7       Do
1|--0----------------0p1--0-------0---|
2|--------0--------1--------1---1-----|
3|------0--------2------------0-------|
4|----2--------0----------------------|
5|------------------------3-----------|
6|--0-------0-------------------------|
    Con votos de renovación;


    Sol7/si*   LAaum4       Sol        Fa               Do
1|-----------------------------------------------1------0-------0--|
2|--3-----3----------3-----------3-----------1-----1--------1------|
3|------0---0----2--------0-0------0-----2-----2-----2--------0----|
4|----3------------3---3-------0-----------3--------------2--------|
5|--2----------0----------------------------------------3----------|
6|--------------------------3----------3---------------------------|
    Y yo que sé del otro mundo / que pide vida en los portales,


    Rem      Do       Sol/Si     Lam      Sol    (Fa)
1|----1--------0--------------------------------------------|
2|--------2--------1----3----------1--------0------------1--|
3|------3--------0----------0----------2--------0-----------|
4|--0---------------------0----------2--------0------0------|
5|-----------3--------2----------0---------------------2-3--|
6|----------------------------------------3-------1h3-------|
   Me doy a hacer una canción.



(A)

       La gente luce estar de acuerdo, maravillosamente todo
       parece afín al celebrar.
       Unos festejan sus millones, otros la camisita limpia
       y hay quien no sabe qué es brindar.


(B)

    Do   Do/Mi Fa  (Sol)            Do    Do/Mi Fa (Sol)
1|----0----0-----1---------------------0----0-----1-----------------------|
2|----1----1-----1--------------1p0-1--1----1-----1-------------1p0-1-----|
3|----0----0-----2----0---0-2p0--------0----0-----2---0---0-2p0-----------|
4|----------------------0-------------------------------0-----------------|
5|--3-------------------------------3-------------------------------3-----|
6|-------0-----1----3---------------------0-----1---3---------------------|

    Mi canción no es del cielo,     Las estrellas, la luna,



    Do   Do/Mi Fa  (Sol)            Do    Do/Mi Fa (Sol)
1|----0----0-----1---------------------0----0-----1-----------------------|
2|----1----1-----1--------------1p0-1--1----1-----1-------------1p0-3p1---|
3|----0----0-----2----0---0-2p0--------0----0-----2---0---0-2p0-----------|
4|----------------------0-------------------------------0-----------------|
5|----------------------------------3-------------------------------3-----|
6|-------0-----1----3---------------------0-----1---3---------------------|

   Porque a ti te la entrego,        Que no tienes ninguna.



    Do   Do/Mi Fa  (Sol)            Do      Do/Mi Fa (Sol)
1|----0----0-----1-----------------------0----0-----1---------------------|
2|----1----1-----1--------------1p0-3p1--1----1-----1-------------1p0-3p1-|
3|----0----0-----2----0---0-2p0----------0----0-----2---0---0-2p0---------|
4|-------2-----3--------0-------------------2-----3-------0---------------|
5|-------2-----3--------------------3-------2-----3-------------------3---|
6|-------0-----1----3-----------------------0-----1---3-------------------|

     Mi canción no es tan sólo            de quien pueda escucharla,



   Do    Do/Mi Fa  (Sol)            Do      Do/Mi Fa (Sol)
1|----0----0-----1-----------------------0----0-----1---------------------|
2|----1----1-----1--------------1p0-3p1--1----1-----1-------------1p0-3p1-|
3|----0----0-----2----0---0-2p0----------0----0-----2---0---0-2p0---------|
4|-------2-----3--------0-------------------2-----3-------0---------------|
5|-------2-----3--------------------3-------2-----3-------------------3---|
6|-------0-----1----3-----------------------0-----1---3-------------------|

     Porque a veces el sordo           lleva más para amarla.



   Do           Do/MI              Fa  (Sol)
1|-----3p0---------------------------1------------------------------------|
2|---------1------------0h1p0--------1-------------1p0--3p1---------------|
3|---0-------0----0---0-------2p0----2---0---0-2p0------------------------|
4|--2---------------2--------------3-------0------------------------------|
5|------------------------------------------------------3-----------------|
6|--------------0------------------1----3---------------------------------|


   Do           Do/MI              Fa     (Sol)
1|-----3p0----------------------------------------------------------------|
2|---------1------------0h1p0--------------------------1p0--3p1-----------|
3|---0-------0----0---0-------2p0------------0---0-2p0--------------------|
4|--2---------------2--------------3-2-0-------0--------------------------|
5|---------------------------------------3-2----------------3-------------|
6|--------------0------------------1-------3------------------------------|



   Do           Do/MI              Fa  (Sol)
1|-----3p0---------------------------1------------------------------------|
2|---------1------------0h1p0--------1-------------1p0--3p1---------------|
3|---0-------0----0---0-------2p0----2---0---0-2p0------------------------|
4|--2---------------2--------------3-------0------------------------------|
5|------------------------------------------------------3-----------------|
6|--------------0------------------1----3---------------------------------|



   Do           Do/MI              Fa     (Sol)           Do
1|-----3p0----------------------------------------------------------------|
2|---------1------------0h1p0----------------------0h1-0--1---------------|
3|---0-------0----0---0-------2p0------------0---0------------------------|
4|--2---------------2--------------3-2-0-------0--------------------------|
5|---------------------------------------3-2--------------3---------------|
6|--------------0------------------1-------3------------------------------|



 (A)
        Tener no es signo de malvado y no tener tampoco es prueba
	de que acompañe la virtud
	pero el que nace bien parado, en procurarse lo que anhela
	no tiene que invertir salud.


 (A)
        Por eso canto a quien no escucha, a quien no dejan escucharme,
	a quien ya nunca me escuchó
	al que su cotidiana lucha  me da razones para amarle
	a aquel que nadie le cantó.



 (B)
        Mi canción no es del cielo, las estrellas, la luna,
	porque a ti te la entrego, que no tienes ninguna.
        Mi canción no es tan sólo de quien pueda escucharla,
	porque a veces el sordo lleva más para amarla.


Sube un tono (poner capo en el 2nd traste)

 (B)
        Mi canción no es del cielo, las estrellas, la luna,
	porque a ti te la entrego, que no tienes ninguna.
        Mi canción no es tan sólo de quien pueda escucharla,
	porque a veces el sordo lleva más para amarla.



Correcciones, peticiones, dudas o cualquier [email protected] de guitarra
me pueden escribir a [email protected]


     *        *    *****    *******  ***   *****   *****
      *    *  *   *     *      *      *   **      *     *
    *  *  *   *  *   *   *     *      *   *      *   *   *
    *    *    *  *  * *  *     *      *   *      *  * *  *
    *    *    *  *   *   * *   *      *   *      *   *   *
    *         *   *     *  **  *      *   **      *     *
  ***       ***    *****    ****    *****  *****   *****   *

Fuente original: LaCuerda
Colaborador original: Mojico [[email protected]]
Aviso: Este fichero es trabajo propio de su transcriptor y representa su interpretación personal de la canción. El material contenido en esta página es para exclusivo uso privado, por lo que se prohibe su reproducción o retransmisión, así como su uso para fines comerciales.

Califica esta canción


Comentarios en Facebook