Enviado por:
Anonimo

Silvio Rodriguez, A Donde Van?

Imprimir
Esta cancion te la dedico pura y esclusivamente a vos PATRICIA, reina de las flores. 
A cambio solo te pido que trates con cuidado mi corazón, ya que esta en tus manos.



Cejilla en el 3° traste
(afinar sexta en D)

intro:

e|---5-----5----5---5----------5-------------|---5-----5-----5---5----------5-------|
B|-----5----------5----8/(7)-----7-----7-----|-----5-----------5----8/(7)-----7-----|
G|-------7-------------------7-----------7---|-------7--------------------7-----7---|
D|-------------------------------------------|-------------7~-----------------------|
A|-------------------------------------------|--------------------------------------|
D|---0~------0~--------0~-----------0~-------|---0~------0~---------0~--------------|


e|----5/3------3----------------------|-----5------------3-------------------------|
B|----------5----5---7----------------|---7-----7------5-----5---7-----------------|
G|----------5--------7----------------|---7-----7------5-----5---7-----------------|
D|------------------------------------|--------------------------------------------|
A|------------------------------------|--------------------------------------------|
D|-0~-------0~-------0~--0-0-0-0-0-0--|---0~----0~-----0~----0~--0~--0-0-0-0-0-0---|


e|-----5------------3-------------------------|-----0-3---------------------------|
B|---7-----7------5-----5---7-----------------|---1-----0-------------------------|
G|---7-----7------5-----5---7-----------------|---2-----------2-------------------|
D|--------------------------------------------|-----------------------------------|
A|--------------------------------------------|-----------------------------------|
D|---0~----0~-----0~----0~--0~--0-0-0-0-0-0---|---0~-------0~-----0-0-0-0-0-0-----|


e|------------------0h2--------|-------------0--2----------------|
B|---3----3--3--3-------3---3--|-------3---3---------------3-----|
G|-----0----0---2---------2----|---------0-----------------------|
D|-----------------------------|---------------------------------|
A|-----------------------------|-----2---------------------------|
D|---0~---0~----0~--0~---------|---0~-----------0~--0~--0~-------|


e|--------------0------2---------------0---------|
B|-----------3----3---------3------3-------------|
G|---------0------------------2------------------|
D|-------2----------------0------0---------------|
A|-----2-----------------------------------------|
D|---0~----------------0~--------------0~--------|



     (La letra la escribo solo con los acordes ya que nunca saque realmente 
     como lo toca silvio, simplemente arpegio mientras canto, y creo que ustedes 
     pueden hacer lo mismo)
     (lo que escribi entre corchetes son notas, no acordes, 
     sirven para enlazar un acorde con otro)


     Re		            Mim7/Re - Re          Re             
     ¿A donde van las palabras que no se quedaron?
              Re		            Mim7/Re - Re           Re
     ¿A donde van las miradas que un día partieron?
     Mi       La                 Re                [Do#]      Sim   
     ¿Acaso flotan eternas, como prisioneras de un ventarrón?
         [La]   Sol                 La                Re     [Do#] Sim La
     ¿O se acurrucan, entre las rendijas, buscando calor?
     Sol                La                  Re                   [Do#]      Sim
     ¿Acaso ruedan sobre los cristales, cual gotas de lluvia que quieren pasar?
       la     Sol           La      Re
     ¿Acaso nunca vuelven a ser algo?
               Mim7/Re - Re
     ¿acaso se van?
                 Mim7/Re - Re
     ¿Y a donde van? 
                Mim7/Re - Re 
     ¿a donde van?


     ¿En que estarán convertidos mis viejos zapatos?
     ¿A donde fueron a dar tantas hojas de un árbol?
     ¿Por donde están las angustias, que desde tus ojos saltaron por mí?
     ¿A donde fueron mis palabras sucias de sangre de abril?
     ¿A donde van ahora mismo estos cuerpos, que no puedo nunca dejar de alumbrar?
     ¿Acaso nunca vuelven a ser algo? ¿acaso se van?
     ¿Y a donde van? ¿a donde van?

     (Intro)

     ¿A donde va lo común, lo de todos los días?
     ¿El descalzarse en la puerta, la mano amiga?
     ¿A donde va la sorpresa, casi cotidiana del atardecer?
     ¿A donde va el mantel de la mesa, el café de ayer?
     ¿A donde van los pequeños terribles encantos que tiene el hogar?
     ¿Acaso nunca vuelven a ser algo? ¿acaso se van?
     ¿Y a donde van? ¿a donde van?

Fuente original: LaCuerda
Colaborador original: Pablo Espinosa [[email protected]]
Aviso: Este fichero es trabajo propio de su transcriptor y representa su interpretación personal de la canción. El material contenido en esta página es para exclusivo uso privado, por lo que se prohibe su reproducción o retransmisión, así como su uso para fines comerciales.

Califica esta canción


Comentarios en Facebook