Enviado por:
Anonimo








Silvio Rodriguez, Alguien

Imprimir
Vercion completa!!!

Introducción:
  
E:|-9---9---10----10----12----12-------------|  
B:|---------------------------------12-------| 
G:|---9---9----10----10----12----12----9-7-9-|
D:|------------------------------------------|  
A:|-0----------------------------------------|
E:|---------7-----------9--------------------| X2 

e:|-------------------12---------------------| 
B:|--13---13-12-10-12----12-10-8-10----------| 
G:|-----9----------0-------------------------| 
D:|------------------------------------------| 
A:|-0----------------------------8-----------| 
E:|------------------------------------------|

e:----------------------------------12---------------------------------------|
B:-13-10-------------------------10----12-10---12~-13-15-13-12-10-9h10-9-----|
G:------11-10------------------9---------------------------------------------|
D:-----------11-9------------9---------------0-------------------------------|
A:---------------11-9------8-------------------------------------------------|
E:-------------------11--9----------------------------------------0----------|

e:------------------------0--5--7--8---8---7---7---5---5----------|
B:--------------------0-1------------------------------------6----|
G:-10-9-7-5-4-2----2-----------------9---9---9---9---7---7--------|
D:-10-9-7-5-4-2--2------------------------------------------------|
A:---------------------------------0------10-------8--------6-----|
E:----------------------------------------------------------------|

e:----------------------------------------------------------------|
B:-----------------------------------------------------------17---|
G:----------------------------------------------------------------|
D:-9-7-9-7--------9-----------------------------------------------|
A:------(7)--9-11-----------------------------------------7-------|
E:-----------------10-12-13-7-8-10-h-12-12-4-5-7----0-------------|

R1
e:------------------------------------|
B:-2---2---3---3---5---5--------------|
G:-------------------------4---4---4--|
D:---2---2---3---3---5---5---3---3----|
A:-0-------2-------4-------0----------|
E:------------------------------------|

R2
e:-------------------------1-------------------0--|
B:-----------------------------0---------0---0----|
G:-5---5---4---4---2---2-----2---2-2-0-1---1------|
D:-----------2---2---0---0-0---------------2------|
A:---7---7-0-------3------------------------------|
E:-5----------------------------------------------|



R3
e:-----------------------0--|
B:---------0-----2----------|
G:-----2-----2-----2---2----|
D:---2---2-----2-----2------|
A:-0------------------------|
E:--------------------------|


Final:


e:--------------------------|
B:-1---3---5----------------|
G:-------------4------------|
D:---2---3-0----------------|
A:-0---2-----7---7-5-7---7--|
E:-------------4-------0----| X2


e:---5---4---2---0------------------------------------|
B:-----2---2---0---2-----------3-2--------------------|
G:-------------------------2-4-----2---4---------6~---|
D:-4-----2---0---2---2-h-4---3---2---4-----0----------|
A:-----------------------------------6---7-7-7--------|
E:---------------------------------------7---9--------|


A)
R1      
Alguien se vuelve sobre mi quejosa soledad.
R1
Algun respiro alguien me da con despreocupación.
R2
Volcado sobre mis papeles no he reparado bien en alguien que se va.


B)
R3 Bm          C#m      D      E
    Alguien es solo un buen objeto,
Bm    C#m        D      E  
una mirada, un buen recuerdo.
A       F#m        E
A veces es un candil
A     F#m       E
o un camisón de dormir,
Bm    C#m       D      E
una cigarra, un nuevo cielo,
Bm    C#m    D      E
una palabra desde lejos.
A       F#m             E
Alguien lo es todo a la vez
A      F        E
y todo pasa después.



A) Mas yo sé que alguien me busco tanteando un paño gris.
Yo sé que alguien suavizo mi forma de vivir.
Y esta querida tempestad que en mi bolsillo va sufriendo por la luz.

B) Alguien es solo un buen objeto,
un mirada, un buen recuerdo.
A veces es un candil
o un camisón de dormir,
una cigarra, un nuevo cielo,
una palabra desde lejos.
Alguien lo es todo a la vez
y todo pasa después.

Fuente original: LaCuerda
Colaborador original: Sebastian Gomez [seba_dm83@hotmail.com]
Aviso: Este fichero es trabajo propio de su transcriptor y representa su interpretación personal de la canción. El material contenido en esta página es para exclusivo uso privado, por lo que se prohibe su reproducción o retransmisión, así como su uso para fines comerciales.

Califica esta canción


Comentarios en Facebook