Acordes y tablaturas para guitarra

Acordes y Tablaturas
Usuario: Password:

Buscar:
Acordes y Tablaturas >> Letra S >> Acordes de Silvio rodriguez >> Sueño con serpientes
Acordes de Sueño con serpientes, Silvio rodriguez

Sueño con serpientes

Silvio rodriguez






do.fa.lasos.mim.rem.re.sol.
 E:----------------------------|------------------------------3----
B:-----------3-3--2-2--0h1----|--------0-----------0--1--1--------
G:-------0---0-------------0--|--------0--0-0---2--0-----0--------
D:-----------0----------------|---0-0--0-----------0-----0--------
A:-----------2----------------|-----------------------------------
E:-------3--------------------|-----------------------------------


E:------3--------3--------1-----------0---------------------------
B:------0----0---0----0------1---1-------1---1---3---0------------
G:---------0--------0----------2-----------0-----------0----------
D:------------------------3-----------2----------2----------------
A:----------------------------------------------------------------
E:------3--------3------------------------------------------------


E:----------|---------------------------|-----------
B:----------|---0h1h3---1p0------3--0---|-----------
G:----------|----------------0----------|-----------
D:----------|---------------------------|-----------
A:----------|---------------------------|-----------
E:----------|---------------------------|-----------


E:-----------3---3---3----1----------0---1---1----------------
B:-----------0-----0---------1---1---1-----0-----3---0--------
G:-----------0-----------------2-----0-----------------0------
D:------------------------3----------2------------------------
A:-----------------------------------3-----------3------------
E:------3----------------------------0------------------------


E:----------|---------------------------|-----------
B:----------|---0h1h3---1p0------3--0---|-----------
G:----------|----------------0----------|-----------
D:----------|---------------------------|-----------
A:----------|---------------------------|-----------
E:----------|---------------------------|-----------


     







SOL
A]Sueño con serpientes
SOL
con serpientes de mar
             Rem
con cierto mar Ay!
[V-0]  Fa        Do  Sol 
de serpientes, sueño yo.

A]Largas, transparentes
y en sus barrigas llevan
lo que puedan
arrebatarle al amor
   
  REm·FA·DO·SOL
B]¡Oh!
     Rem          Fa   Do  Sol 
La mato y aparece otra mayor
 REm·FA·DO·SOL
¡Oh!
     Rem          Fa
con mucho mas infierno
    Do     Sol 
en digestión

A]No quepo en su boca
me trata de tragar 
pero se atora
con un trébol de mi sien
creo que esta loca
le doy de masticar una paloma
y la enveneno de mi bien.

B]¡Oh! La mato...

A]Esta al fin me engulle
y mientras por su estomago paseo
voy pensando en que vendrá
pero se destruye
cuando llego a su estomago 
y planteo con un verso una verdad

B]¡Oh!
La mato y aparece una mayor
¡Oh!
con mucho mas infierno
en digestión
La#  Fa    Mim           Re
La mato y aparece una mayor
Rem   FA·DO·SOL·REm·FA·DO·SOL
¡Oooooooh! 

Fuente original: LaCuerda
Colaborador original: jose iturra [[email protected]]

Que te parecio? Calificalo con estrellas!!

Rating: 4.1/10 (71 votos)

Este fichero es trabajo propio de su transcriptor y representa su interpretación personal de la canción. El material contenido en esta página es para exclusivo uso privado, por lo que se prohibe su reproducción o retransmisión, así como su uso para fines comerciales.


Deja tus comentarios:

Letras de Silvio rodriguez
Letras de canciones | Musica Independiente