Acordes y tablaturas para guitarra

Acordes y Tablaturas
Usuario: Password:

Buscar:
Acordes y Tablaturas >> Letra S >> Acordes de Shakira >> Ojos asi
Tablatura de Ojos asi, Shakira

Ojos asi

Shakira






En esta transcripcion tambien esta la sitara, solo que la puse para
dos guitarras por que no alcanzo a tocarla con una guitarra, si tu puedes
pues solo junta la primer y segunda guitarra..


La afinacion de las guitarras es normal...

Gtr I   (E A D G B E) - sitara
Gtr II  (E A D G B E) - sitara
Gtr III (E A D G B E) - Guitarra limpia
Gtr IV  (E A D G B E) - Guitarra con distorsion


  Q=130
 4/4
  Gtr I
  W          W          W          W
|----------|----------|----------|------|
|----------|----------|----------|------|
|----------|----------|----------|------|
|----------|----------|----------|------|
|----------|----------|----------|------|
|----------|----------|----------|------|


  W          Q  Q  Q  E E   Q  E E E E Q    Q  Q  Q  E E
|----------|--------------|---------------|--------------|
|----------|--------------|---------------|--------------|
|----------|--------------|-1-------------|--------------|
|----------|-------3--4-3-|----4-3-4-3----|-------3--4-3-|
|----------|-3--4---------|------------4--|-3--4---------|
|----------|--------------|---------------|--------------|
|
| Gtr II
| W          Q  Q  Q  E E   Q  E E E E Q    Q  Q  Q  E E
|----------|-------1--2-1-|-4--2-1-2-1----|-------1--2-1-|
|----------|-1--2---------|------------2--|-1--2---------|
|----------|--------------|---------------|--------------|
|----------|--------------|---------------|--------------|
|----------|--------------|---------------|--------------|
|----------|--------------|---------------|--------------|


  E E E E E E Q    Q  Q  Q  E E   Q   E    E E E Q    Q  Q  Q  E E
|----------------|--------------|-------------------|---------------|
|----------------|--------------|-------------------|---------------|
|-1--------------|--------------|-1-----------------|---------------|
|---4-3-4-3-0----|-------3--4-3-|-----4----3-4-3----|-------3--4-3--|
|-------------4--|-3--4---------|----------------4--|-3--4----------|
|----------------|--------------|-------------------|---------------|
|
| E E E E E E Q    Q  Q  Q  E E   Q  +S  S E E E Q    Q  Q  Q  E E
|-4-2-1-2-1------|-------1--2-1-|-4--(4)-2-1-2-1----|-------1--2-1--|
|-----------3-2--|-1--2---------|----------------2--|-1--2----------|
|----------------|--------------|-------------------|---------------|
|----------------|--------------|-------------------|---------------|
|----------------|--------------|-------------------|---------------|
|----------------|--------------|-------------------|---------------|


                 Gtr III
  H    +H        H    +Q   Q    W          Q.   E H
|--------------|-1----(1)-----|----------|-------------|
|--------------|-2----(2)-----|----------|-3-----------|
|--------------|-1----(1)-----|----------|-4-----------|
|--------------|--------------|----------|-4-----------|
|-4----(4)-----|--------------|----------|-------------|
|--------------|--------------|----------|-------------|
|
| H    +Q.   E   W              W          W
|--------------|--------------|----------|-------------|
|-2----(2)-----|--------------|----------|-------------|
|--------------|--------------|----------|-------------|
|--------------|--------------|----------|-------------|
|--------------|--------------|----------|-------------|
|--------------|--------------|----------|-------------|


  H    +Q   +S  S E   W          +Q   +S  S E H      H    H
|-1----(1)--(1)-----|-1--------|-(1)--(1)----------|-----------|
|-2----(2)--(2)-----|-2--------|-(2)--(2)----------|-3---------|
|-1----(1)--(1)-----|-1--------|-(1)--(1)----------|-4---------|
|-------------------|----------|-------------------|-4---------|
|-------------------|----------|-------------------|-----------|
|-------------------|----------|-------------------|-----------|


  Gtr II
  W               W           W
|---------------|----------|-----------------------|
|---------------|----------|-----------------------|
|---------------|----------|-----------------------|
|---------------|----------|-----------------------|
|---------------|----------|-----------------------|
|---------------|----------|-----------------------|
|
| Gtr III
| H    Q  E S S   W          +Q   +S  S E Q  E S S
|-1-------------|-2--------|-(2)--(2)--------------|
|-2-----------3-|----------|---------------------2-|
|-1-----------2-|----------|---------------------1-|
|---------------|----------|-----------------------|
|---------------|----------|-----------------------|
|---------------|----------|-----------------------|
|
| Gtr IV
| W               W          +Q    Q      H
|---------------|----------|-----------------------|
|---------------|----------|-----------------------|
|---------------|-2--------|-(2)-------------------|
|---------------|-0--------|-(0)-------------------|
|---------------|----------|-----------------------|
|---------------|----------|-----------------------|


  E  S S  S S S S E  S S E  S S
|---10---10---9------------------|
|-------------------10-----------|
|--------------------------11----|
|--------------------------------|
|--------------------------------|
|--------------------------------|
|
| W
|-1------------------------------|
|--------------------------------|
|--------------------------------|
|--------------------------------|
|--------------------------------|
|--------------------------------|
|
| W
|--------------------------------|
|--------------------------------|
|--------------------------------|
|-6------------------------------|
|-4------------------------------|
|--------------------------------|


   S  E S  E    S S S E S +S  S E
|---------------4-------------------|
|--6----7-----------6---------------|
|-----------------------6-(6)-------|
|-----------------------------------|
|-----------------------------------|
|-----------------------------------|
|
| +Q      +S  S E   Q      E    S S
|-----------------------------------|
|-(6)-----(6)-----------------------|
|-----------------------------------|
|---------------------------------7-|
|-----------------------------------|
|-----------------------------------|
|
| +H                H
|-----------------------------------|
|-----------------------------------|
|-----------------------------------|
|-(6)-------------------------------|
|-(4)-------------------------------|
|-----------------------------------|


  W           W                 W
|----------|------------------|-----------------|
|----------|------------------|-----------------|
|----------|------------------|-----------------|
|----------|------------------|-----------------|
|----------|------------------|-----------------|
|----------|------------------|-----------------|
|
| W          +H      Q  E S S   H    +E  E Q
|----------|------------------|-----------------|
|-7--------|-(7)--------------|-6----(6)--------|
|-7--------|-(7)--------------|-6----(6)--------|
|----------|----------------6-|-----------------|
|----------|------------------|-----------------|
|----------|------------------|-----------------|
|
| W          +Q.   E H          H     H
|----------|------------------|-----------------|
|----------|------------------|-----------------|
|----------|------------------|-----------------|
|-7--------|-(7)--------------|-6---------------|
|-5--------|-(5)--------------|-4---------------|
|----------|------------------|-----------------|


  Gtr III                   Gtr II
  S S E E S S E S S E S S   S  S S  S  S  S S S S  S S  S  S  S  S S
|-------------------------|-9-10---12-10-12-9---9-10---12-10-12------|
|-------------------------|--------------15------------------15-14---|
|-6-------6-----6-----4---|------------------------------------------|
|-------------------------|------------------------------------------|
|-------------------------|------------------------------------------|
|-------------------------|------------------------------------------|
|
| Gtr IV
| S S E E S S E S S E E     E    E     Q        H
|-------------------------|------------------------------------------|
|-------------------------|------------------------------------------|
|-------------------------|------------------------------------------|
|-6-------6-----6-----4---|-6----------------------------------------|
|-4-------4-----4---------|-4----------------------------------------|
|---------------------7---|------------------------------------------|


  S S S S S S S S  S  S S  S S S E   S  S S  S  S  S  S S S  S S  S  S  S S S
|-7-7---7-7---7---10-12---10-9-----|-9-10---12-10-12-10---9-10---12-10-12-9---|
|----------------------------------|-----------------14-----------------------|
|----------------------------------|------------------------------------------|
|----------------------------------|------------------------------------------|
|----------------------------------|------------------------------------------|
|----------------------------------|------------------------------------------|


   S  S S  S  S S  S S  S  S S  S  S S E    S  S S  S  Q   S  S S  S  Q
|----------------------------------------|-16-16---16-16--17-19---17-16--|
|----------------------15-17---15-14-----|-------------------------------|
|-16-16---16-16---16---------------------|-------------------------------|
|----------------------------------------|-------------------------------|
|----------------------------------------|-------------------------------|
|----------------------------------------|-------------------------------|


   S  S S  S  S S  S S  S  S S  S  E E
|-14-14---14-14---14---17-19---17-16---|
|--------------------------------------|
|--------------------------------------|
|--------------------------------------|
|--------------------------------------|
|--------------------------------------|


   S S  S S  E E  S  S S  S  E E    E  S S  E  S S  E  S  S E E
|-16---16---17---14-13---14-16---|---------12-10---14-14-10-9---|
|--------------------------------|-17-15--------------15--------|
|--------------------------------|------------------------------|
|--------------------------------|------------------------------|
|--------------------------------|------------------------------|
|--------------------------------|------------------------------|


  S  S S  S  S  S  S S  S  S S  S  S  S  S S
|-9-10---12-10-12--------------12-10-12------|
|--------------15-14---14-15------------14---|
|--------------------------------------------|
|--------------------------------------------|
|--------------------------------------------|
|--------------------------------------------|


   S  S S  S  S S  S S  S  S S  S S S E
|----------------------10-12---10-9-----|
|-12-12---12-12---12--------------------|
|---------------------------------------|
|---------------------------------------|
|---------------------------------------|
|---------------------------------------|


  S  S S  S  S  S  S S S  S S  S  S S S S   S S S S S S S S  S  S S  S S S E
|-9-10---12-10-12-10---9-10---12-10---9---|-7-7---7-7---7---10-12---10-9-----|
|-----------------14----------------------|----------------------------------|
|-----------------------------------------|----------------------------------|
|-----------------------------------------|----------------------------------|
|-----------------------------------------|----------------------------------|
|-----------------------------------------|----------------------------------|


   S  S S  S  S S E  S  S S  S  E E    S  S S  S  S S  S S  S  S S  S  E E
|-16-16---16-16-----17-19---17-16---|-14-14---14-14---14---17-19---17-16---|
|-----------------------------------|--------------------------------------|
|-----------------------------------|--------------------------------------|
|-----------------------------------|--------------------------------------|
|-----------------------------------|--------------------------------------|
|-----------------------------------|--------------------------------------|


   S S  S S  E E  S  S S  S  E E    E  S S  E  S S  E  S  S Q    W
|-16---16---17---14-13---14-16---|---------12-10---14-10-14-9--|------|
|--------------------------------|-17-15-----------------15----|------|
|--------------------------------|-----------------------------|------|
|--------------------------------|-----------------------------|------|
|--------------------------------|-----------------------------|------|
|--------------------------------|-----------------------------|------|


  Gtr III
  W          W          W          H    +Q   Q
|----------|----------|----------|-1----(1)-----|
|----------|----------|----------|-2----(2)-----|
|----------|----------|----------|-1----(1)-----|
|----------|----------|----------|--------------|
|----------|----------|----------|--------------|
|----------|----------|----------|--------------|


  W          Q.   E H      H    +Q   +S  S E   W
|----------|-------------|-1----(1)--(1)-----|-1----|
|----------|-3-----------|-2----(2)--(2)-----|-2----|
|----------|-4-----------|-1----(1)--(1)-----|-1----|
|----------|-4-----------|-------------------|------|
|----------|-------------|-------------------|------|
|----------|-------------|-------------------|------|


  +Q   +S  S E H      H    H      H    Q  E S S   W
|-(1)--(1)----------|-----------|-1-------------|-2----|
|-(2)--(2)----------|-3---------|-2-----------3-|------|
|-(1)--(1)----------|-4---------|-1-----------2-|------|
|-------------------|-4---------|---------------|------|
|-------------------|-----------|---------------|------|
|-------------------|-----------|---------------|------|
|
| Gtr IV
|  W                  W           W               W
|-------------------|-----------|---------------|------|
|-------------------|-----------|---------------|------|
|-------------------|-----------|---------------|------|
|-------------------|-----------|---------------|-7----|
|-------------------|-----------|---------------|-5----|
|-------------------|-----------|---------------|------|


  Gtr II
   W                      E  S S  S S S S E  S S E  S S
|-----------------------|---10---10---9-----------------|
|-----------------------|-------------------10----------|
|-----------------------|--------------------------11---|
|-----------------------|-------------------------------|
|-----------------------|-------------------------------|
|-----------------------|-------------------------------|
|
| Gtr III
| +Q   +S  S E Q  E S S   W
|-----------------------|-1-----------------------------|
|-(7)--(7)------------2-|-------------------------------|
|---------------------1-|-------------------------------|
|-----------------------|-------------------------------|
|-----------------------|-------------------------------|
|-----------------------|-------------------------------|
|
| Gtr IV
| +Q    Q      H          W
|-----------------------|-------------------------------|
|-----------------------|-------------------------------|
|-----------------------|-------------------------------|
|-(7)-------------------|-6-----------------------------|
|-(5)-------------------|-4-----------------------------|
|-----------------------|-------------------------------|


   S  E  S  E     S S  S E  S  +S  S E
|----------------------------------------|
|----------------------------------------|
|-10----11-------13----------------------|
|---------------------15-----------------|
|--------------------------16-(16)-------|
|----------------------------------------|
|
| +Q       +S  S  E    Q        E    S S
|-(1)------(1)---------------------------|
|----------------------------------------|
|----------------------------------------|
|--------------------------------------7-|
|----------------------------------------|
|----------------------------------------|
|
| +H                   H
|----------------------------------------|
|----------------------------------------|
|----------------------------------------|
|-(6)------------------------------------|
|-(4)------------------------------------|
|----------------------------------------|


  Gtr III
  W          +H      Q  E S S   H    +E  E Q    S S E E S S E S S E   S S
|----------|------------------|---------------|---------------------------|
|-7--------|-(7)--------------|-6----(6)------|---------------------------|
|-7--------|-(7)--------------|-6----(6)------|-6-------6-----6-------4---|
|----------|----------------6-|---------------|---------------------------|
|----------|------------------|---------------|---------------------------|
|----------|------------------|---------------|---------------------------|
|
| Gtr IV
| W          +Q.   E H          H     H         S S E E S S E S S S S E
|----------|------------------|---------------|---------------------------|
|----------|------------------|---------------|---------------------------|
|----------|------------------|---------------|---------------------------|
|-7--------|-(7)--------------|-6-------------|-6-------6-----6-------4---|
|-5--------|-(5)--------------|-4-------------|-4-------4-----4-----2-----|
|----------|------------------|---------------|---------------------------|


  Gtr II
   S  S S  S  S  S  S S  S  S S  S  S  S  S S
|---------------12--------------12-10-12------|
|---------17-15-15-14---14-15---------15-14---|
|-18-19---------------------------------------|
|---------------------------------------------|
|---------------------------------------------|
|---------------------------------------------|
|
|  E    E     Q          H
|---------------------------------------------|
|---------------------------------------------|
|---------------------------------------------|
|--6------------------------------------------|
|--4------------------------------------------|
|---------------------------------------------|


   S  S S  S  S S  S S  S  S S  S S S E
|----------------------10-12---10-9-----|
|-12-12---12-12---12--------------------|
|---------------------------------------|
|---------------------------------------|
|---------------------------------------|
|---------------------------------------|
|
|  W
|---------------------------------------|
|---------------------------------------|
|---------------------------------------|
|---------------------------------------|
|---------------------------------------|
|---------------------------------------|


   S  S S  S  S  S  S S  S  S S  S  S  S  S S
|---------------------------------------------|
|-14-15---17-15-17-15---14-15---17-15-17------|
|------------------18--------------------18---|
|---------------------------------------------|
|---------------------------------------------|
|---------------------------------------------|


   S  S S  S  S S  S S  S  S S  S  S S E
|----------------------------------------|
|----------------------15-17---15-14-----|
|-16-16---16-16---16---------------------|
|----------------------------------------|
|----------------------------------------|
|----------------------------------------|


   S  S S  S  Q   S  S S  S  Q     S  S S  S  S S  S S  S  S S  S  E E
|-16-16---16-16--17-19---17-16--|-14-14---14-14---14---17-19---17-16----|
|-------------------------------|---------------------------------------|
|-------------------------------|---------------------------------------|
|-------------------------------|---------------------------------------|
|-------------------------------|---------------------------------------|
|-------------------------------|---------------------------------------|


   S S  S S  E E  S  S S  S  E E    E  S S  E  S S  E  S  S E E
|-16---16---17---14-13---14-16---|---------12-10---14-14-10-9---|
|--------------------------------|-17-15--------------15--------|
|--------------------------------|------------------------------|
|--------------------------------|------------------------------|
|--------------------------------|------------------------------|
|--------------------------------|------------------------------|


  S  S S  S  S  S  S S  S  S S  S  S  S  S S
|-9-10---12-10-12--------------12-10-12------|
|--------------15-14---14-15------------14---|
|--------------------------------------------|
|--------------------------------------------|
|--------------------------------------------|
|--------------------------------------------|


   S  S S  S  S S  S S  S  S S  S S S E
|----------------------10-12---10-9-----|
|-12-12---12-12---12--------------------|
|---------------------------------------|
|---------------------------------------|
|---------------------------------------|
|---------------------------------------|


   S  S S  S  S  S  S S  S  S S  S  S S  S S
|--------------------------------------------|
|-14-15---17-15-17-15---14-15---17-15---14---|
|------------------18------------------------|
|--------------------------------------------|
|--------------------------------------------|
|--------------------------------------------|


   S  S S  S  S S  S S  S  S S  S S S E
|----------------------10-12---10-9-----|
|-12-12---12-12---12--------------------|
|---------------------------------------|
|---------------------------------------|
|---------------------------------------|
|---------------------------------------|


   S  S S  S  S S E  S  S S  S  E E    S  S S  S  S S  S S  S  S S  S  E E
|-16-16---16-16-----17-19---17-16---|-14-14---14-14---14---17-19---17-16---|
|-----------------------------------|--------------------------------------|
|-----------------------------------|--------------------------------------|
|-----------------------------------|--------------------------------------|
|-----------------------------------|--------------------------------------|
|-----------------------------------|--------------------------------------|


   S S  S S  E E  S  S S  S  E E    E  S S  E  S S  E  S  S Q    W
|-16---16---17---14-13---14-16---|---------12-10---14-10-14-9--|------|
|--------------------------------|-17-15-----------------15----|------|
|--------------------------------|-----------------------------|------|
|--------------------------------|-----------------------------|------|
|--------------------------------|-----------------------------|------|
|--------------------------------|-----------------------------|------|


  Gtr I
  W          W          W          W
|----------|----------|----------|------|
|----------|----------|----------|------|
|----------|----------|----------|------|
|----------|----------|----------|------|
|----------|----------|----------|------|
|----------|----------|----------|------|


  W          W          W          Q  E S S S S S S S S S S
|----------|----------|----------|---------------------------|
|----------|----------|----------|------2---2-2-2-2---2---2--|
|----------|----------|----------|---------------------------|
|----------|----------|----------|---------------------------|
|----------|----------|----------|---------------------------|
|----------|----------|----------|---------------------------|


  S S S S +S  S S S S S S S S S S S   S S S S S S S S  S S S S S S S S
|-----------------------------------|-----------9---9--9-9-9-9-9-9-9---|
|-2-2-2-2-(2)-2---2-2-2-2-2-2-2-2---|-2---2-----------14---------------|
|-------------------------------6---|----------------------------------|
|-----------------------------------|----------------------------------|
|-----------------------------------|----------------------------------|
|-----------------------------------|----------------------------------|


   S S S S S S S S S S  S S  S S S S   S S S S S S S S S S S S S S  S S
|--9-9-9-9-9-9-9-9-9----9----9-9-9-9-|-9-9-9-9-9-9-9-9-9-9-9-9-9-9-10---|
|-14-------------------14---14-------|-----------------------------14---|
|------------------------------------|----------------------------------|
|------------------------------------|----------------------------------|
|------------------------------------|----------------------------------|
|------------------------------------|----------------------------------|


   S  S  S  S S S E +S  S S S S S S S   S S S S S S S S S S S S S S S S
|-----------7-7-7-7-(7)-5-5-5-5-----4-|-4-4---4-4-4-4-4-4-4-4-4-4-4-4-4-|
|-12-12-12-12-------------------7---7-|-------------9-------------------|
|-------------------------------------|---------------------------------|
|-------------------------------------|---------------------------------|
|-------------------------------------|---------------------------------|
|-------------------------------------|---------------------------------|


  S S S S E E S S S S E E   S S S S E S S S S E Q
|-2-2-2-2-2-2-2-2-2-2-2---|-1---1-----1---1--------|
|-------------7-----------|------------------------|
|-------------------------|------------------------|
|-------------------------|------------------------|
|-------------------------|------------------------|
|-------------------------|------------------------|


  Gtr II
  S S S S S S  S S S S S S S S S S
|------------------------------------|
|------------------------------------|
|-6-7---9-7-9--7---6-7---9-7---6-----|
|-------------11---------------------|
|------------------------------------|
|------------------------------------|


  S S S S S S S S S S S S S S E   S S S S S S S S S S S S S S  S S
|-------------------------------|----------------------------------|
|-----------------3-5---3-2-----|-2-3---5-3-5----------------------|
|-4-4---4-4---4-----------------|-----------7-6---6-7---9-7-9------|
|-------------------------------|-----------------------------11---|
|-------------------------------|----------------------------------|
|-------------------------------|----------------------------------|


  S S S S S S S S S S S S S S E   S S S S Q   S  S S  S E E
|-------------------------------|---------------------------|
|-------------------------------|-9-9---9-9--10-12---10-9---|
|-----------------7-9---7-6-----|---------------------------|
|-9-9---9-9---9-----------------|---------------------------|
|-------------------------------|---------------------------|
|-------------------------------|---------------------------|


   S  S S  S  S S  S S  S S S S E E
|-------------------------7---5-4---|
|----------------------10-----------|
|-11-11---11-11---11----------------|
|-----------------------------------|
|-----------------------------------|
|-----------------------------------|


  S S S S E E S S S S E E   E S S E S S E S S E E
|-4---4---5-----------4---|-------0-----2---2-----|
|-------------7-6-7-------|-5-3-----3-----3-3-2---|
|-------------------------|-----------------------|
|-------------------------|-----------------------|
|-------------------------|-----------------------|
|-------------------------|-----------------------|


  S  S S  S  S  S  S S S  S S  S  S  S  S S   E S S S S S S  S  S S  S E E
|-9-10---12-10-12-10---9-10---12-10-12-10---|-7---7-7---7---10-12---10-9---|
|-----------------14-------------------14---|------------------------------|
|-------------------------------------------|------------------------------|
|-------------------------------------------|------------------------------|
|-------------------------------------------|------------------------------|
|-------------------------------------------|------------------------------|


  S  S S  S  S  S S S S  S S  S  S S S S   S S S S S S S S  S  S S  S S S E
|-9-10---12-10-12-9---9-10---12-10---9---|-7-7---7-7---7---10-12---10-9-----|
|--------------15------------------------|----------------------------------|
|----------------------------------------|----------------------------------|
|----------------------------------------|----------------------------------|
|----------------------------------------|----------------------------------|
|----------------------------------------|----------------------------------|


   S  S S  S  Q   S  S S  S  E E    S  S S  S  S S  S S  S  S S  S  S S E
|-16-16---16-16--17-19---17-16---|-14-14---14-14---14---17-19---17-16-----|
|--------------------------------|----------------------------------------|
|--------------------------------|----------------------------------------|
|--------------------------------|----------------------------------------|
|--------------------------------|----------------------------------------|
|--------------------------------|----------------------------------------|


   S S  S S  E E  S  S S  S  S S E
|-16---16---17---14-13---14-16-----|
|----------------------------------|
|----------------------------------|
|----------------------------------|
|----------------------------------|
|----------------------------------|
|
| Gtr IV
|  E    E    E E  E    E     Q
|----------------------------------|
|----------------------------------|
|--4-----------4--2----------------|
|--2-----------2--0----------------|
|----------------------------------|
|----------------------------------|


   S S  S S  S S  S S  S S  S  S Q          +H                  +S  S E Q
|-----------12---10---14---10-10-9--------|-(9)-----------------(9)--------*|
|-17---15---------------------------------|--------------------------------*|
|-----------------------------------------|--------------------------------*|
|-----------------------------------------|--------------------------------*|
|-----------------------------------------|--------------------------------*|
|-----------------------------------------|--------------------------------*|
|
| Gtr I
|  H                   Q         S S S  S    S  S  S S S S S  S  S  S E Q
|----------------------------------9-9--9-|--9--9--9-9-9-9-9--9--9--9------*|
|--------------------------------------14-|-------14---------14------------*|
|-----------------------------------------|--------------------------------*|
|-----------------------------------------|--------------------------------*|
|-----------------------------------------|--------------------------------*|
|-----------------------------------------|--------------------------------*|


FIN!!!
- BUENO AQUI ABAJO ESTA EL SIGNIFICADO DE LAS LETRAS Y LOS SIGNOS...
- ESPERO QUE LES HAYA AGRADADO Y SOBRETODO QUE LE HAYAN ENTENDIDO...
- POR SI ALGUNA RAZON NO LE ENTIENDEN PUES HECHENME UN MAIL A: [email protected]
- SI QUIEREN ALGUNA PETICION PUES TAMBIEN HECHENME UN MAIL...
- ESTA CANCION Y OTRAS LAS TENGO EN ARCHIVOS POWERTAB, POR SI ALGUIEN LA QUIERE...
  PUES HECHENME UN MAIL PIDIENDOLAS...
- LOS VERE EN LA PROXIMA CANCION!!!...


NOTA!!!: PUEDEN UTILIZAR ESTA TAB PARA PUBLICARLA DONDE USTEDES
QUIERAN, PERO POR FAVOR LES RUEGO QUE ME DEN LOS CREDITOS COMO
TRANSCRIPTOR DE LA MISMA...GRACIAS!!!

NESTOR SADAO ARECHIGA CERVANTES ([email protected])


LEYENDA DE LAS NOTAS:

W = (REDONDA)     NOTA COMPLETA
H = (BLANCA)      MEDIA NOTA
Q = (NEGRA)       CUARTO DE NOTA
E = (CORCHEA)     OCTAVO DE NOTA
S = (SEMICORCHEA) DIECISEISAVA DE NOTA
T = (FUSA)        TREINTAIDOSAVA DE NOTA
X = (SEMIFUSA)    SESENTAICUATROAVA DE NOTA

a  =  ACCIACCATURA
+  =  LIGADURA
.  =  AUMENTA LA DURACION DE LA NOTA
.. =  AUMENTA LA DOBLE DE LA DURACION DE LA NOTA


LEYENDA DEL PENTAGRAMA
 |  - COMPAS
||  - DOBLE COMPAS
||o - ES DONDE VA A COMENZAR CUANDO ALGO SE VA A REPETIR
o|| - ES DONDE VA A TERMINAR CUANDO ALGO SE VA A REPETIR
*|  - FIN DE LA CANCION
 :  - COMPAS LIBRE
 $  - SEGNO (AL VER ESTE SIGNO, TENEMOS QUE RETROCEDER HASTA VER EL SIGNO ANTERIOR $...)
 &  - CODA (SIGNIFICA QUE DEBES PASAR LA SIGUIENTE SIGNO &)

Fuente original: LaCuerda
Colaborador original: sNaKePiTs [Nestor Sadao Arechiga Cervantes]

Que te parecio? Calificalo con estrellas!!

Rating: 3.7/10 (10 votos)

Este fichero es trabajo propio de su transcriptor y representa su interpretación personal de la canción. El material contenido en esta página es para exclusivo uso privado, por lo que se prohibe su reproducción o retransmisión, así como su uso para fines comerciales.


Deja tus comentarios:

Letras de Shakira
Letras de canciones | Musica Independiente